Finger Eleven - Stone Soul tab

KEY
pb= pre-bend
r= release
b= bend
*= palm-hit
x= scratch
~= sustain
/= slide up
\= slide down
p= pull-off

0:00
guitar 1
e|---------------------------------|
B|---------------------------------|
G|---------------------------------|
D|---------5-5-5-5---------5-5-5-5-|
A|-3-3-3-3---------3-3-3-3---------|
E|---------------------------------|

guitar 2
e|-------------------------------------------------|
B|-13----13----13----13----13----13----13----13----|
G|----12----12----12----12----12----12----12----12-|
D|-------------------------------------------------|
A|-------------------------------------------------|
E|-------------------------------------------------|

0:04
guitar 1
e|---------------------------------|
B|---------------------------------|
G|---------------------------------|
D|---------------------------------|
A|---------5-5-5-5---------5-5-5-5-|
E|-3-3-3-3---------3-3-3-3---------|

guitar 2
e|-------------------------------------------------|
B|-12----12----15----15----12----12----15----15----|
G|----12----12----12----12----12----12----12----12-|
D|-------------------------------------------------|
A|-------------------------------------------------|
E|-------------------------------------------------|

guitar 3
e|---------------------------------------------
B|-pb17r15b17r15b17r15b17r15b17r15b17r15b17r15-
G|---------------------------------------------|
D|---------------------------------------------|
A|---------------------------------------------|
E|---------------------------------------------|

0:07
guitar 1 (clean)
e|-----------------------------------------|
B|-----------------------------------------|
G|-5-5-*-x-x-5-5-*-x-x-5-5-*-x-x-5-5-*-x-x-|
D|-5-5-*-x-x-5-5-*-x-x-5-5-*-x-x-5-5-*-x-x-|
A|-3-3-*-x-x-3-3-*-x-x-3-3-*-x-x-3-3-*-x-x-|
E|-----------------------------------------|
If I were made of stone, could you shake my soul to its

0:12
guitar 1 (clean)
e|-----------------------------------------|
B|-----------------------------------------|
G|-----------------------------------------|
D|-5-5-*-x-x-5-5-*-x-x-5-5-*-x-x-5-5-*-x-x-|
A|-5-5-*-x-x-5-5-*-x-x-5-5-*-x-x-5-5-*-x-x-|
E|-3-3-*-x-x-3-3-*-x-x-3-3-*-x-x-3-3-*-x-x-|
very core, like no one could before?

0:16
guitar 1 (clean)
e|-----------------------------------------|
B|-----------------------------------------|
G|-----------------------------------------|
D|-3-3-*-x-x-3-3-*-x-x-5-5-*-x-x-5-5-*-x-x-|
A|-3-3-*-x-x-3-3-*-x-x-5-5-*-x-x-5-5-*-x-x-|
E|-1-1-*-x-x-1-1-*-x-x-3-3-*-x-x-3-3-*-x-x-|
Now you've turned me into such a fool, and you know it's true.

0:21
guitar 1 (clean)
e|-----------------------------------------|
B|-----------------------------------------|
G|-5-5-*-x-x-5-5-*-x-x---------------------|
D|-5-5-*-x-x-5-5-*-x-x-5-5-*-x-x-5-5-*-x-x-|
A|-3-3-*-x-x-3-3-*-x-x-5-5-*-x-x-5-5-*-x-x-|
E|---------------------3-3-*-x-x-3-3-*-x-x-|

guitar 2
e|-----------8b10~~~~~~8~~~~~~~~-----------|
B|-----------------------------------------|
G|-5~~~~7~~~~------------------------------|
D|-----------------------------------------|
A|-----------------------------------------|
E|-----------------------------------------|

0:24
guitar 1 (clean)
e|-------------------------------|
B|-------------------------------|
G|-------------------------------|
D|-3-3-*-x-x-3-3-*-x-x-5-5~~~~~~-|
A|-3-3-*-x-x-3-3-*-x-x-5-5~~~~~~-|
E|-1-1-*-x-x-1-1-*-x-x-3-5~~~~~~-|
And if I never make it back to you, just know I wanted to.

0:30
guitar 1
e|-----------------------------------------|
B|-----------------------------------------|
G|-5-5-*-x-x-5-5-*-x-x-5-5-*-x-x-5-5-*-x-x-|
D|-5-5-*-x-x-5-5-*-x-x-5-5-*-x-x-5-5-*-x-x-|
A|-3-3-*-x-x-3-3-*-x-x-3-3-*-x-x-3-3-*-x-x-|
E|-----------------------------------------|

guitar 2
e|-----------------------------|
B|-----------------------------|
G|-9/10\9-9/10\9-9/10\9-9/10\9-|
D|-----------------------------|
A|-7/8\\7-7/8\\7-7/8\\7-7/8\\7-|
E|-----------------------------|

0:33
guitar 1
e|-----------------------------------------|
B|-----------------------------------------|
G|-5-5-*-x-x-5-5-*-x-x-5-5-*-x-x-5-5-*-x-x-|
D|-5-5-*-x-x-5-5-*-x-x-5-5-*-x-x-5-5-*-x-x-|
A|-3-3-*-x-x-3-3-*-x-x-3-3-*-x-x-3-3-*-x-x-|
E|-----------------------------------------|
If I were made of stone, could you shake my soul to its

0:38
guitar 1
e|-----------------------------------------|
B|-----------------------------------------|
G|-----------------------------------------|
D|-5-5-*-x-x-5-5-*-x-x-5-5-*-x-x-5-5-*-x-x-|
A|-5-5-*-x-x-5-5-*-x-x-5-5-*-x-x-5-5-*-x-x-|
E|-3-3-*-x-x-3-3-*-x-x-3-3-*-x-x-3-3-*-x-x-|
very core? No one could before.

0:42
guitar 1
e|-----------------------------------------|
B|-----------------------------------------|
G|-5-5-*-x-x-5-5-*-x-x-5-5-*-x-x-5-5-*-x-x-|
D|-5-5-*-x-x-5-5-*-x-x-5-5-*-x-x-5-5-*-x-x-|
A|-3-3-*-x-x-3-3-*-x-x-3-3-*-x-x-3-3-*-x-x-|
E|-----------------------------------------|
It was easier to, but the thought of you.

0:46
guitar 1
e|-----------------------------------------|
B|-----------------------------------------|
G|-----------------------------------------|
D|-5-5-*-x-x-5-5-*-x-x-5-5-*-x-x-5-5-*-x-x-|
A|-5-5-*-x-x-5-5-*-x-x-5-5-*-x-x-5-5-*-x-x-|
E|-3-3-*-x-x-3-3-*-x-x-3-3-*-x-x-3-3-*-x-x-|
But you get right through, and I'm glad you do.

0:50
guitar 1
e|-----------------------------------------|
B|-----------------------------------------|
G|-----------------------------------------|
D|-3-3-*-x-x-3-3-*-x-x-5-5-*-x-x-5-5-*-x-x-|
A|-3-3-*-x-x-3-3-*-x-x-5-5-*-x-x-5-5-*-x-x-|
E|-1-1-*-x-x-1-1-*-x-x-3-3-*-x-x-3-3-*-x-x-|
Now you've turned me into such a fool, and you know it's true.

guitar 2
e|----------8------------10-------12b13r12----|
B|-6-8-8/10---8-10-10/12----10-12----------13-|
G|--------------------------------------------|
D|--------------------------------------------|
A|--------------------------------------------|
E|--------------------------------------------|

0:58
guitar 1
e|-------------------------------|
B|-------------------------------|
G|-------------------------------|
D|-3-3-*-x-x-3-3-*-x-x-5-5~~~~~~-|
A|-3-3-*-x-x-3-3-*-x-x-5-5~~~~~~-|
E|-1-1-*-x-x-1-1-*-x-x-3-5~~~~~~-|
And if I never make it back to you, just know I wanted to.

guitar 2
e|----------8---|
B|-6-8-8/10---8-|
G|--------------|
D|--------------|
A|--------------|
E|--------------|

1:04
guitar 1
e|-----------------------------------------|
B|-----------------------------------------|
G|-5-5-*-x-x-5-5-*-x-x-5-5-*-x-x-5-5-*-x-x-|
D|-5-5-*-x-x-5-5-*-x-x-5-5-*-x-x-5-5-*-x-x-|
A|-3-3-*-x-x-3-3-*-x-x-3-3-*-x-x-3-3-*-x-x-|
E|-----------------------------------------|

guitar 2
e|----------------------------------|
B|-------------------------12/13\12-|
G|-9/10\9--9/10\9--9/10\9-----------|
D|-------------------------9//10\\9-|
A|-7/8\\7--7/8\\7--7/8\\7-----------|
E|----------------------------------|

1:08
guitar 1
e|--------------------------------------|
B|-10~~~~~~~~~~~~~~~~-------------------|
G|-10~~~~~~~~~~~~~~~~9~~~~~~~~~~~~~~~~~~
D|-10~~~~~~~~~~~~~~~~10~~~~~~~~~~~~~~~~~
A|-8~~~~~~~~~~~~~~~~~10~~~~~~~~~~~~~~~~~
E|-------------------8~~~~~~~~~~~~~~~~~~
I don't know how I can tell you straight.

1:12
guitar 1
e|--------------------------------------|
B|-10~~~~~~~~~~7~~~~~~~~~~--------------|
G|-10~~~~~~~~~~7~~~~~~~~~~9~~~~~~~~~~~~~
D|-10~~~~~~~~~~7~~~~~~~~~~10~~~~~~~~~~~~
A|-8~~~~~~~~~~~5~~~~~~~~~~10~~~~~~~~~~~~
E|------------------------8~~~~~~~~~~~~~
It's gotta be just the right time and place.

1:17
guitar 1
e|--------------------------------------
B|-10~~~~~~~~~~~~~~~~~~~~~~~~~~~12~~~~~~
G|-10~~~~~~~~~~~~~~~~~~~~~~~~~~~12~~~~~~
D|-10~~~~~~~~~~~~~~~~~~~~~~~~~~~12~~~~~~
A|-8~~~~~~~~~~~~~~~~~~~~~~~~~~~~10~~~~~~
E|--------------------------------------
I swear to God one day, I'm gonna say it to your face. Yeah, one day!

1:27
guitar 1
e|-----------------------------------------|
B|-----------------------------------------|
G|---------------------3-3-*-x-x-3-3-*-x-x-|
D|-3-3-*-x-x-3-3-*-x-x-3-3-*-x-x-3-3-*-x-x-|
A|-3-3-*-x-x-3-3-*-x-x-1-1-*-x-x-1-1-*-x-x-|
E|-1-1-*-x-x-1-1-*-x-x---------------------|

guitar 2 (wah)
e|-----------------------------------|
B|----10-10-10-10b11-10--------------|
G|----------------------10-10~~------|
D|-10--------------------------12p10-|
A|-----------------------------------|
E|-----------------------------------|

1:31
guitar 1
e|-----------------------------------------|
B|-----------------------------------------|
G|---------------------3-3-*-x-x-3-3-*-x-x-|
D|-3-3-*-x-x-3-3-*-x-x-3-3-*-x-x-3-3-*-x-x-|
A|-3-3-*-x-x-3-3-*-x-x-1-1-*-x-x-1-1-*-x-x-|
E|-1-1-*-x-x-1-1-*-x-x---------------------|

guitar 2 (wah)
e|--------------------------------------------|
B|--------10-10-11b13-10----------------------|
G|-----------------------10-------12-12-12-10-|
D|10~~-10-------------------12p10-------------|
A|--------------------------------------------|
E|--------------------------------------------|

1:36
guitar 1
e|-----------------------------------------|
B|-----------------------------------------|
G|---------------------5-5-*-x-x-5-5-*-x-x-|
D|-3-3-*-x-x-3-3-*-x-x-5-5-*-x-x-5-5-*-x-x-|
A|-3-3-*-x-x-3-3-*-x-x-3-3-*-x-x-3-3-*-x-x-|
E|-1-1-*-x-x-1-1-*-x-x---------------------|

guitar 2 (wah)
e|--------------------------------|
B|----------13-13----13b15~~r12~~-|
G|12b14-/14-------14--------------|
D|--------------------------------|
A|--------------------------------|
E|--------------------------------|

1:41
guitar 1
e|-----------------------------------------|
B|-----------------------------------------|
G|-5-5-*-x-x-5-5-*-x-x---------------------|
D|-5-5-*-x-x-5-5-*-x-x-5-5-*-x-x-5-5-*-x-x-|
A|-3-3-*-x-x-3-3-*-x-x-5-5-*-x-x-5-5-*-x-x-|
E|---------------------3-3-*-x-x-3-3-*-x-x-|

guitar 2 (wah)
e|-------13-13----13~~-|
B|-13/15-------15------|
G|---------------------|
D|---------------------|
A|---------------------|
E|---------------------|

1:44
guitar 1
e|-13-12------------|
B|-------15-13-15~~-|
G|------------------|
D|------------------|
A|------------------|
E|------------------|

guitar 2
e|-18-17-15----15~~-|
B|----------18------|
G|------------------|
D|------------------|
A|------------------|
E|------------------|

1:46
guitar 1
e|-----------------------------------------|
B|-----------------------------------------|
G|-7-7-*-x-x-7-7-*-x-x-7-7-*-x-x-7-7-*-x-x-|
D|-7-7-*-x-x-7-7-*-x-x-7-7-*-x-x-7-7-*-x-x-|
A|-5-5-*-x-x-5-5-*-x-x-5-5-*-x-x-5-5-*-x-x-|
E|-----------------------------------------|
If I were made of stone, could you shake my soul to its

1:51
guitar 1
e|-----------------------------------------|
B|-----------------------------------------|
G|-----------------------------------------|
D|-7-7-*-x-x-7-7-*-x-x-7-7-*-x-x-7-7-*-x-x-|
A|-7-7-*-x-x-7-7-*-x-x-7-7-*-x-x-7-7-*-x-x-|
E|-5-5-*-x-x-5-5-*-x-x-5-5-*-x-x-5-5-*-x-x-|
very core, like no one could before?

1:54
guitar 1
e|-----------------------------------------|
B|-----------------------------------------|
G|-----------------------------------------|
D|-5-5-*-x-x-5-5-*-x-x-7-7-*-x-x-7-7-*-x-x-|
A|-5-5-*-x-x-5-5-*-x-x-7-7-*-x-x-7-7-*-x-x-|
E|-3-3-*-x-x-3-3-*-x-x-5-5-*-x-x-5-5-*-x-x-|
Now you've turned me into such a fool.

guitar 2
e|------------10-------------12-|
B|-8-10-10/12----10-12-12/14----|
G|------------------------------|
D|------------------------------|
A|------------------------------|
E|------------------------------|

1:59
guitar 1
e|-----------------------------------------|
B|-----------------------------------------|
G|-7-7-*-x-x-7-7-*-x-x---------------------|
D|-7-7-*-x-x-7-7-*-x-x-7-7-*-x-x-7-7-*-x-x-|
A|-5-5-*-x-x-5-5-*-x-x-7-7-*-x-x-7-7-*-x-x-|
E|---------------------5-5-*-x-x-5-5-*-x-x-|
And I don't know if you know it's true.

guitar 2
e|-------14b15-12~~~-|
B|-12-14-------------|
G|-------------------|
D|-------------------|
A|-------------------|
E|-------------------|

2:03
guitar 1
e|-----------------------------------------|
B|-----------------------------------------|
G|-----------------------------------------|
D|-5-5-*-x-x-5-5-*-x-x-7-7-*-x-x-7-7-*-x-x-|
A|-5-5-*-x-x-5-5-*-x-x-7-7-*-x-x-7-7-*-x-x-|
E|-3-3-*-x-x-3-3-*-x-x-5-5-*-x-x-5-5-*-x-x-|
But if I never make it back to you, just know I wanted to.

guitar 2
e|------------10----|
B|-8-10-10/12----10-|
G|------------------|
D|------------------|
A|------------------|
E|------------------|

2:09
guitar 1
e|-----------------------------------------|
B|-----------------------------------------|
G|-7-7-*-x-x-7-7-*-x-x-7-7-*-x-x-7-7-*-x-x-|
D|-7-7-*-x-x-7-7-*-x-x-7-7-*-x-x-7-7-*-x-x-|
A|-5-5-*-x-x-5-5-*-x-x-5-5-*-x-x-5-5-*-x-x-|
E|-----------------------------------------|
                           Just know I wanted to.
guitar 2
e|----------------|
B|-10-------------|
G|----11b12r11~~~-|
D|----------------|
A|----------------|
E|----------------|

2:13
guitar 1
e|-----------------------------------------|
B|-----------------------------------------|
G|-----------------------------------------|
D|-7-7-*-x-x-7-7-*-x-x-7-7-*-x-x-7-7-*-x-x-|
A|-7-7-*-x-x-7-7-*-x-x-7-7-*-x-x-7-7-*-x-x-|
E|-5-5-*-x-x-5-5-*-x-x-5-5-*-x-x-5-5-*-x-x-|
                           Just know I wanted to.

guitar 2
e|------------------|
B|-10---------------|
G|----11b12r11-9~~~-|
D|------------------|
A|------------------|
E|------------------|

2:16
guitar 1
e|-----------------------------------------|
B|-----------------------------------------|
G|-----------------------------------------|
D|-5-5-*-x-x-5-5-*-x-x-7-7-*-x-x-7-7-*-x-x-|
A|-5-5-*-x-x-5-5-*-x-x-7-7-*-x-x-7-7-*-x-x-|
E|-3-3-*-x-x-3-3-*-x-x-5-5-*-x-x-5-5-*-x-x-|

guitar 2
e|------------10-------------12-|
B|-8-10-10/12----10-12-12/14----|
G|------------------------------|
D|------------------------------|
A|------------------------------|
E|------------------------------|

2:20
guitar 1
e|-----------------------------------------|
B|-----------------------------------------|
G|-7-7-*-x-x-7-7-*-x-x---------------------|
D|-7-7-*-x-x-7-7-*-x-x-7-7-*-x-x-7-7-*-x-x-|
A|-5-5-*-x-x-5-5-*-x-x-7-7-*-x-x-7-7-*-x-x-|
E|---------------------5-5-*-x-x-5-5-*-x-x-|
And I don't know if you know it's true.

guitar 2
e|-------------14-12~~~-|
B|-12-14-14/15----------|
G|----------------------|
D|----------------------|
A|----------------------|
E|----------------------|

2:23
guitar 1
e|----------------------------|
B|----------------------------|
G|----------------------------|
D|-5-5-*-x-x-5-5-*-x-x-7~~~~~-|
A|-5-5-*-x-x-5-5-*-x-x-7~~~~~-|
E|-3-3-*-x-x-3-3-*-x-x-5~~~~~-|
But if I never make it back to you, just know I wanted to.

guitar 2
e|------------10----|
B|-8-10-10/12----10-|
G|------------------|
D|------------------|
A|------------------|
E|------------------|

2:29
guitar 1
e|-------------|
B|----7~~~~~~~-|
G|---7~~~~~~~~-|
D|--7~~~~~~~~~-|
A|-5~~~~~~~~~~-|
E|-------------|
Tap to rate this tab
 
# A B C D E F G H I J K L M N O P Q R S T U V W X Y Z