Song name
# A B C D E F G H I J K L M N O P Q R S T U V W X Y Z

Finger Eleven - Bones And Joints tab

Bones And Joints Tab by Finger Eleven

Drop D Tuning

Verse
e-----------------------------------------------|
B-----------------------------------------------|
G--5-5-4----------------------------------------|
D--5-5-4-0-2-2-2-2-2----------------------------|
A--3-3-2-0-2-2-2-2-2----------------------------|
E--------0-2-2-2-2-2----------------------------|

Pre-chorus
e-----------------------------------------------|
B-----------------------------------------------|
G-----------------------5-----------------------|
D---3-3-3-3-3-3----2-2--5-----------------------|
A---3-3-3-3-3-3----2-2--3-----------------------|
E---3-3-3-3-3-3----2-2--------------------------|
"I'm non't minding the pain..."

Chorus
e----------------------------------------|
B----------------------------------------|
G----------------------------------------|
D---5-5-5-5-55--1-1-1--0-00--------------|
A---5-5-5-5-55--1-1-1--0-00--------------|
E---5-5-5-5-55--1-1-1--0-00--------------|

e----------------------------------------|
B----------------------------------------|
G----------------------------------------|
D---5-5-5-5-55--9-9-9--2-2---------------|
A---5-5-5-5-55--9-9-9--2-2---------------|
E---5-5-5-5-55--9-9-9--2-2---------------|

Play this part when it gets soft and quiet
[Figure 1]
e---------------|
B---------------|
G---------------|
D---------------| x3
A---3---2-------|
E---------0--2--|

After playing [Figure 1] 3 times, play this once
e---------------|
B---------------|
G---------------|
D---------------|
A---------------|
E---3----2------|

Chorus
e----------------------------------------|
B----------------------------------------|
G----------------------------------------|
D---5-5-5-5-55--1-1-1--0-00--------------|
A---5-5-5-5-55--1-1-1--0-00--------------|
E---5-5-5-5-55--1-1-1--0-00--------------|

e----------------------------------------|
B----------------------------------------|
G----------------------------------------|
D---5-5-5-5-55--9-9-9--2-2---------------|
A---5-5-5-5-55--9-9-9--2-2---------------|
E---5-5-5-5-55--9-9-9--2-2---------------|
Tap to rate this tab
# A B C D E F G H I J K L M N O P Q R S T U V W X Y Z