Song name
# A B C D E F G H I J K L M N O P Q R S T U V W X Y Z

Finger Eleven - Paralyzer chords

Highlighted       Show chord diagrams
INTRO

-----------------------------------------|
-----------------------------------------|
---7-5----------7-5----------7-7-7-10-7-7|
-------8-7-7-5-----8-7-7-5-7-------------|
-----------------------------------------|
-----------------------------------------|
VERSE I
Dm
I hold on so nervously
E
To me and my drink
F             E
I wish it was cooling me
Dm
But so far, has not been good
E
It痴 been shitty
F                   E
And I feel awkward, as I should
Dm
This club has got to be
E
The most pretentious thing
F               E
Since I thought you and me
Dm
Well I am imagining
G
A dark lit place
F
Or your place or my place

CHORUS
Dm
Well I知 not paralyzed
But, I seem to be struck by you
G                    F
I want to make you move
Because you池e standing still
Dm
If your body matches
What your eyes can do
G
You値l probably move right through
F
Me on my way to you

VERSE (same with 1st verse)
I hold out for one more drink
Before I think
I知 looking too desperately
But so far has not been fun
I should just stay home
If one thing really means one
This club will hopefully
Be closed in three weeks
That would be cool with me
Well I知 still imagining
A dark lit place
Or your place or my place

CHORUS
Well, I知 not paralyzed
But, I seem to be struck by you
I want to make you move
Because you池e standing still
If your body matches
What your eyes can do
You値l probably move right through
Me on my way to you

We値l, I知 not paralyzed
But, I seem to be struck by you
I want to make you move
Because you池e standing still
If your body matches
What your eyes can do
You値l probably move right through
Me on my way to you

I知 not paralyzed
But, I seem to be struck by you
I want to make you move
Because you池e standing still
If your body matches
What your eyes can do
You値l probably move right through
Me on my way to you

You値l probably move right through
Me on my way to you

You値l probably move right through
Me on my way to you



Solo

----------------------------------------------|
---10-8-6-5-6-----5-6-5--5-5-5-5---5-5-10-----|
-7------------7-7-------------------------7---|
----------------------------------------------|
----------------------------------------------|
----------------------------------------------|
Tap to rate this tab
# A B C D E F G H I J K L M N O P Q R S T U V W X Y Z