Song name
# A B C D E F G H I J K L M N O P Q R S T U V W X Y Z

Finger Eleven - Unspoken tab

Tuning: Db Ab Db Gb Bb eb

It\'s pretty hard to hear the guitars clearly on
this song, but here\'s what I\'ve come up with...




Verse:
-|----------------2--|-
-|----------------3--|-
-|----------------2--|-
-|--55-44-2-2225--0--|- 4x
-|--22-22-2-2222-----|-
-|--22-22-2-2222-----|-
                 8x


Chorus:
-|--0---0--|-     -|---0---0--|-
-|--1---0--|-     -|---0---1--|-
-|--0---0--|-     -|---2---0--|-
-|--2---2--|- 2x  -|---2---2--|-
-|--3---2--|-     -|---0---3--|-
-|------2--|-     -|----------|-



Bridge:
-|--------------------2--|-
-|--------------------3--|-
-|--------------------2--|-
-|-22-22-xx2-xx2-xx5--0--|- 4x
-|-22-55-xx4-xx2-xx2-----|-
-|-22-55-xx4-xx2-xx2-----|-
                      12x



Chorus:
-|--0---0--|-     -|---0---0--|-
-|--1---0--|-     -|---0---1--|-
-|--0---0--|-     -|---2---0--|-
-|--2---2--|- 3x  -|---2---2--|-
-|--3---2--|-     -|---0---3--|-
-|------2--|-     -|----------|-



Verse:
-|----------------2--|-
-|----------------3--|-
-|----------------2--|-
-|--55-44-2-2225--0--|- 4x
-|--22-22-2-2222-----|-
-|--22-22-2-2222-----|-
                 8x


End with this instead of
the regular open chord:

-|--5--|-
-|--3--|-
-|--2--|-
-|--0--|-
-|--0--|-
-|--0--|-
Tap to rate this tab
# A B C D E F G H I J K L M N O P Q R S T U V W X Y Z