Guitaretab - guitar tabs
Song name
# A B C D E F G H I J K L M N O P Q R S T U V W X Y Z

Finger Eleven - Stay In Shadow tab

Stay In Shadow Ė Finger Eleven
Drop D and a half step down

Main Riff:
eb|---------------------------|
Bb|---------------------------|
Gb|-----7/9---9/10------------|
Db|-0---7/9---9/10--0-8--8-\5-|
Ab|-0---5/7---7/8---0-8--8-\5-|
Db|-0---------------0-8--8-\5-|

Chorus:
|-----------------------------------------------------------|
|-----------------------------------------------------------|
|---------7\-----------7----------7-------7-------7-------7-|
|-1-1-1-1-7\---3-3-3-3-7----------x-------x-------x-------x-| X3
|-1-1-1-1-5\---3-3-3-3-5----5-5-5-5-5-5-5-5-5-5-5-5-5-5-5-5-|
|-1-1-1-1------3-3-3-3------5-5-5---5-5-5---5-5-5---5-5-5---|

|-----------------------------------------------------------|end 2nd
|-----------------------------------------------------------|chorus with
|---------7\-----------7----------7-------7-----------------|8 in a  |
|-1-1-1-1-7\---3-3-3-3-7----------x-------x-----------------|row    \|/
|-1-1-1-1-5\---3-3-3-3-5----5-5-5-5-5-5-5-5-5-5-5---5-5-5---|       -5-
|-1-1-1-1------3-3-3-3------5-5-5---5-5-5---5-5-5---5-5-5---|       -5-

Verse 2:
|-----------------------|
|-----------------------|
|-----------------------|
|-----------------------| X4
|----5-7--7-8-----------|
|-0-----------0-8--8-\5-|
  .  . .  . . . .
|------------------------|
|------------------------|
|------------------------|
|----7/9--9/10-----------| X4
|-0--5/7--7/8--0-8--8-\5-|
|-0------------0-8--8-\5-|

Bridge:
|-------------------------------------------------|
|-------------------------------------------------|
|-----------------------7\5-----5-------9\7-----7-|
|-88888888-33333333-0---7\5-----5---0---9\7-----7-| X3
|-88888888-33333333-0---5\3-3-3-3---0---7\5-5-5-5-|
|-88888888-33333333-0---------------0-------------|
                            . .             . .
|-------------------------------------------------------------------------|
|-------------------------------------------------------------------------|
|-------------------------------------------------------------------------|
|-88888888-33333333-55555555-11111111-88888888-33333333-55555555-55555x-5-|
|-88888888-33333333-55555555-11111111-88888888-33333333-55555555-55555x-5-|
|-88888888-33333333-55555555-11111111-88888888-33333333-55555555-55555x-5-|
[ Tab from: http://www.guitaretab.com/f/finger-eleven/55794.html ]
Solo (2nd Guitar plays Main Riff throughout solo):
|--------------------------------------------------------------------------|
|--------13----13---------------------------------------------13----13-----|
|-12b14---(14)--(14r12b14)---10-10-10--12--12b14--10-----10/12----14----14-|
|--------------------------------------------------------------------------|
|--------------------------------------------------------------------------|
|--------------------------------------------------------------------------|

|--------------------------------------12b14-------------------------------|
|---------------------------------------------------11b13r11---------------|
|-10h12p10h12--12b14---10-10-12b14--10--------10-10----------10--12b14--10-|
|--------------------------------------------------------------------------|
|--------------------------------------------------------------------------|
|--------------------------------------------------------------------------|

|---------------------------12b13----10b11-|-10----------------------------|
|-11b13-11b13r11-10---------------10-------|-------------------------------|
|--------------------12b14-----------------|-------------------------------|
|------------------------------------------|-------------------------------|
|------------------------------------------|-------------------------------|
|------------------------------------------|-------------------------------|

Final Chorus (starts on final note of solo):
|-------------------------------------------------------------|
|-------------------------------------------------------------|
|-----------------------------------7-------7-------7-------7-|
|-1-1-1---------3-3-3---------------x-------x-------x-------x-| X2
|-1-1-1---------3-3-3---------5-5-5-5-5-5-5-5-5-5-5-5-5-5-5-5-|
|-1-1-1---------3-3-3---------5-5-5---5-5-5---5-5-5---5-5-5---|

|-------------------------------------------------------------|
|-------------------------------------------------------------|
|---------7\------------7-----------7-------7-------7-------7-|
|-1-1-1-1-7\----3-3-3-3-7-----------x-------x-------x-------x-|
|-1-1-1-1-5\----3-3-3-3-5-----5-5-5-5-5-5-5-5-5-5-5-5-5-5-5-5-|
|-1-1-1-1-------3-3-3-3-------5-5-5---5-5-5---5-5-5---5-5-5---|

|-------------------------------------------------------------|
|-------------------------------------------------------------|
|---------7\------------7-----------7-------7-----------------|
|-1-1-1-1-7\----3-3-3-3-7-----------x-------x-5-5-5-5-5-5-5-5-|
|-1-1-1-1-5\----3-3-3-3-5-----5-5-5-5-5-5-5-5-5-5-5-5-5-5-5-5-|
|-1-1-1-1-------3-3-3-3-------5-5-5---5-5-5---5-5-5-5-5-5-5-5-|

Outro:
|-----------------------------------------------------------------|
|-----------------------------------------------------------------|
|---------------------------------------7-------7-------7-------7-|
|-1-1-1-1-1-1-1-1-3-3-3-3-3-3-3-3-------x-------x-------x-------x-| x2
|-1-1-1-1-1-1-1-1-3-3-3-3-3-3-3-3-5-5-5-5-5-5-5-5-5-5-5-5-5-5-5-5-|
|-1-1-1-1-1-1-1-1-3-3-3-3-3-3-3-3-5-5-5---5-5-5---5-5-5---5-5-5---|
                          |                             *       *
           Last Time Only |               on last time donít play these
                         \ /
Gb|----------------------14hb-----12~~~~~~~~~~~~~~-----------------|
Related for Stay In Shadow tab