Song name
# A B C D E F G H I J K L M N O P Q R S T U V W X Y Z

Finger Eleven - Ill Keep Your Memory Vague tab

Help us improve GuitareTab! Take a short survey!
----------------------------------------------------------------------------
	     I'll Keep Your Memory Vague - Finger Eleven
----------------------------------------------------------------------------

Tabbed by: Bassface01
Email: guneagleluke@charter.net

Since no one  has tabbed the lead part for this song, i thought I might as well, so 
can play the entire song.

Tuning: EADGBE

Intro/Verse:
e|-4---4-----------------------------2--2-2----------|
B|-5---5-------5h7p5-----------------3--3-3--4-------|
G|-6---6-----6----------7-6h7p6------4--4-4--5-------|
D|-6---6---7--------------------7----4--4-4--6-------|
A|-4---4-----------------------------2--2-2--6-------|
E|-------------------------------------------4-------|


Chorus:
e|-------16-17-16-----------------------|
B|-17-19----------19-17--19-21----------|
G|--------------------------------------| X3
D|--------------------------------------|
A|--------------------------------------|
E|--------------------------------------|

e|-------------------------|
B|-17-16-------------------|
G|-------------------------|
D|-------------------------|
A|-------------------------|
E|-------------------------|


Break:
e|-----------------------|
B|-----------------------|
G|-9/19------------------|
D|----------9/14---------|
A|-----------------------|
E|-----------------------|


Verse:
e|-4---4-----------------------------2--2-2----------|
B|-5---5-------5h7p5-----------------3--3-3--4-------|
G|-6---6-----6----------7-6h7p6------4--4-4--5-------|
D|-6---6---7--------------------7----4--4-4--6-------|
A|-4---4-----------------------------2--2-2--6-------|
E|-------------------------------------------4-------|

e|-4---4--2---2--0--0--0--0---2--2--2--2-------|
B|-5---5--3---3--2--2--2--2---3--3--3--3--4----|
G|-6---6--2---2--2--2--2--2---4--4--4--4--5----|
D|-6---6--0---0--2--2--2--2---4--4--4--4--6----|
A|-4---4---------0--0--0--0---2--2--2--2--6----|
E|----------------------------------------4----|

This part of the verse has some weird effect on it, pay attention and you'll here it
e|-----9-----|
B|---9-------|
G|-----------| X2
D|-9---------|
A|-----------|
E|-----------|


Chorus:
This Time the lead guitarist puts two parts into the chorus
e|-------16-17-16-----------16------------|
B|-17-19----------19-17--19---------------|
G|----------------------------------------| X3
D|----------------------------------------|
A|----------------------------------------|
E|----------------------------------------|

e|-------------------------|
B|-17-16-------------------|
G|-------------------------|
D|-------------------------|
A|-------------------------|
E|-------------------------|
|
|
e|-0--0-0000-0--0--0-0000-0-------|
B|-2--2-2222-2--0--0-0000-0-------|
G|-4--4-4444-4--1--1-1111-1-------| X3
D|-2--2-2222-2--2--2-2222-2-------|
A|-0--0-0000-0--2--2-2222-2-------|
E|--------------0--0-0000-0-------|

e|-0---------|
B|-2---------|
G|-4---------|
D|-2---------|
A|-0---------|
E|-----------|

Solo/Break:
There's two guitar parts to this
Lead:
e|--------------------------|
B|-14----16h17p16----19-21--|
G|--------------------------| X3
D|--------------------------|
A|--------------------------|
E|--------------------------|

e|------------------------19b--|
B|-14----16h17p16----16--------|
G|-----------------------------|
D|-----------------------------|
A|-----------------------------|
E|-----------------------------|
|
|
Rhythm:
e|-----------------------|
B|-----------------------|
G|-66666xxx44444xxx222222| X3
D|-66666xxx44444xxx222222|
A|-44444xxx22222xxx000000|
E|-----------------------|

e|-----------------------|
B|-----------------------|
G|-66666xxx44444xxx444444|
D|-66666xxx44444xxx444444|
A|-44444xxx22222xxx222222|
E|-----------------------|


Chorus: Play until the song fades
e|-------16-17-16-----------16------------|
B|-17-19----------19-17--19---------------|
G|----------------------------------------| X3
D|----------------------------------------|
A|----------------------------------------|
E|----------------------------------------|

e|-------------------------|
B|-17-16-------------------|
G|-------------------------|
D|-------------------------|
A|-------------------------|
E|-------------------------|
|
|
e|-0--0-0000-0--0--0-0000-0-------|
B|-2--2-2222-2--0--0-0000-0-------|
G|-4--4-4444-4--1--1-1111-1-------| X3
D|-2--2-2222-2--2--2-2222-2-------|
A|-0--0-0000-0--2--2-2222-2-------|
E|--------------0--0-0000-0-------|

e|-0---------|
B|-2---------|
G|-4---------|
D|-2---------|
A|-0---------|
E|-----------|
Related for Ill Keep Your Memory Vague tab