Song name
# A B C D E F G H I J K L M N O P Q R S T U V W X Y Z

Fingertight - Surface tab

FIngertight 
Surface
In THe NAme Of Progress
Standard Tuning


GO...

1.
e|-----------------------------|
B|-----------------------------|
G|---------7h8p7-h8-10-8-7-5/7-|
D|-4-4-4---7h8p7-h8-10-8-7-5/7-| 3x
A|-2-2-2-----------------------|
E|-2-2-2-----------------------|

e|---------------------------------|
B|---------------------------------|
G|---------7h8p7-h8-10-12-10-8-7//-| 1x
D|-4-4-4---7h8p7-h8-10-12-10-8-7//-|
A|-2-2-2---------------------------|
E|-2-2-2---------------------------|



=_______=


2.
e|--------------------|
B|--------------------|
G|--------------------|
D|--------------------|
A|-2222------2222-----|
E|--------------------|
++                      7x
e|--------------------|
B|--------------------|
G|--------------------|
D|--------------------|
A|-2222-5-3--2222-5-3-|
E|--------------------|

Then...

e|-------------------------|
B|-------------------------|
G|-------------------------|
D|-------------------------|
A|-2222------2222-55555555-|
E|-------------------------|
++                           1x
e|-------------------------|
B|-------------------------|
G|-------------------------|
D|-------------------------|
A|-2222-5-3--2222-55555555-|
E|-------------------------|



Next...
=_______=


3.
e|--------------------|
B|--------------------|
G|--------------------|
D|--------------------|
A|-2222------2222-----|
E|--------------------|
++                      7x
e|--------------------|
B|--------------------|
G|--------------------|
D|--------------------|
A|-2222-5-3--2222-5-3-|
E|--------------------|

Then...

e|----------------0---------|
B|----------------0---------|
G|----------------0---------|
D|----------------0---------|
A|-2222------2222-0---------|
E|--------------------------|
++                           1x
e|----------------0---------|
B|----------------0---------|
G|----------------0---------|
D|----------------0---------|
A|-2222-5-3--2222-0---------|
E|--------------------------|




Next..
=_______=


4.
e|---------------------|
B|---------------------|
G|---------------------|
D|-22-2-5-3--22-2-5-3--| 7x
A|-22-2-5-3--22-2-5-3--|
E|-00-0-3-1--00-0-3-1--|

Then..
e|---------------------|
B|---------------------|
G|---------------------|
D|-22-2-5-3--55555555--| 1x
A|-22-2-5-3--55555555--|
E|-00-0-3-1--33333333--|




Next..
=_______=


5.
e|---------------------|
B|---------------------|
G|---------------------| 2x
D|---------------------|
A|---------------------|
E|-0-00-3-1--0-00-3-1--|


Then..
e|-----------------------------------------|
B|-----------------------------------------|
G|-----------------------------------------| 
D|-----------------------------------------|
A|-----------------------------------------|
E|-0-00-3-1--0-00-3-1--0-00-3-1--0-00-3-1--|
++                       3x
e|-----------------------------------0-----|
B|-----------------------------------0-----|
G|-----------------------------------0-----|
D|-xx-xx-----xx-xx-----xx-xx---------0-----|
A|-xx-xx-----xx-xx-----xx-xx-----1///------|
E|-xx-xx-----xx-xx-----xx-xx-----1///------|



Next..
=_______= repeat "4. & 5." w/ slight diferent strum paterns.


then....
(Pick with thumb/finger)
e|---------|
B|---------|
G|---------|
D|---------|
A|-5-5-5-5-|
E|---------|


-Next-


e|-----------------------------|
B|-----------------------------|
G|---------7h8p7-h8-10-8-7-5/7-|
D|-4-4-4---7h8p7-h8-10-8-7-5/7-| 1x
A|-2-2-2-----------------------|
E|-2-2-2-----------------------|

e|---------------------------------|
B|---------------------------------|
G|---------7h8p7-h8-10-12-10-8-7//-| 1x
D|-4-4-4---7h8p7-h8-10-12-10-8-7//-|
A|-2-2-2---------------------------|
E|-2-2-2---------------------------|

e|-----------------------------|
B|-----------------------------|
G|---------7h8p7-h8-10-8-7-5/7-|
D|-4-4-4---7h8p7-h8-10-8-7-5/7-| 1x
A|-2-2-2-----------------------|
E|-2-2-2-----------------------|

e|---------------------------------|
B|---------------------------------|
G|---------7h8p7-h8-10-12-10-8-7//-| 1x
D|-4-4-4---7h8p7-h8-10-12-10-8-7//-|
A|-2-2-2---------------------------|
E|-2-2-2---------------------------|




Repeat "3. & 4."




``Next``

A.(light strum, mute between strums)
e|-------------------------------|
B|-------------------------------|
G|-9-9-9-9-9-9-9-9-9-9-9-9-9-9-9-|
D|-8-8-8-8-8-8-8-8-8-8-8-8-8-8-8-|
A|-------------------------------|
E|-------------------------------|

B.then...
e|------0*------0*------0*------0*-|
B|------0*------0*------0*------0*-|
G|------0*------0*------0*------0*-|
D|---------------------------------|
A|-2222----2222----2222----2222----|
E|-0000----0000----0000----0000----|
   ....    ....    ....    ....

repeat A&B 6x

Repeat 4. slightly different ending...

Done.

-god only knows
Tap to rate this tab
# A B C D E F G H I J K L M N O P Q R S T U V W X Y Z