Song name
# A B C D E F G H I J K L M N O P Q R S T U V W X Y Z

Fingertight - Nathaniel tab

Fingertight - Nathaniel (from the album : In the name of progress - Columbia Records)

Tabbed by : Matt Jansson (semisonic30@hotmail.com)

Standard tuning E A D G B E


A great song which is really easy to play. It only contains 4 chords, so anyone
can learn how to play this one. Itīs absolutely 100 % correct so donīt complain.
The only thing you have to figure out for yourself is the strumming pattern.

Verse :

-----  -----  -----
-----  -----  -----
--6--  --4--  --2--  repeat over and over
--6--  --4--  --2--
--4--  --2--  --0--
-----  -----  -----


Chorus :

-----  -----  -----  -----
-----  -----  -----  -----
--6--  -----  --2--  --4--  repeat over and over
--6--  --6--  --2--  --4--
--4--  --6--  --0--  --2--
-----  --4--  -----  -----

Itīs really that easy. So enjoy this one.
Tap to rate this tab
 
# A B C D E F G H I J K L M N O P Q R S T U V W X Y Z