Song name
# A B C D E F G H I J K L M N O P Q R S T U V W X Y Z

Fingertight - Guilt Hold On tab

Ok i tabbed this by ear so it might not be exactly what they wrote, but it sounds just 
what they play. Check it out e-mail me feedback at popwarsk8errp@gmail.com. good luck.

Intro:
(HEAVY DISTORTION ECHO)
e|---------------------|---------------------|------------------------|
B|--------------<5>----|--------------<5>----|-------------------<5>--|
G|---0----0---0----<5>-|---0----0---0----<5>-|---0---0---0---<5>------|x2
D|--4----4---4---------|--4----4---4---------|--4---4---4-------------|
A|-2---/5---0----------|-2---/5---0----------|-2---/5---0-------------|
E|---------------------|---------------------|------------------------|

Verse: (Distortion echo off)
Guitar1
e|------------------------|
B|------------------------|
G|------------------------|
D|------------------------|
A|-2~~~~~~/5~~~~~0--------|
E|------------------------|

Guitar 2
e|---------------------|---------------------|------------------------|
B|--------------<5>----|--------------<5>----|-------------------<5>--|
G|---0----0---0----<5>-|---0----0---0----<5>-|---0---0---0---<5>------|
D|--4----4---4---------|--4----4---4---------|--4---4---4-------------|
A|-2---/5---0----------|-2---/5---0----------|-2---/5---0-------------|
E|---------------------|---------------------|------------------------|

Chorus:
e|------------------------|
B|------------------------|
G|-4~~~~7~~~~2~~~~12-11-9-|
D|-4~~~~7~~~~2~~~~X--X--X-|
A|-2~~~~5~~~~0~~~~10-9--7-|
E|------------------------|

This is a very incomplete version of the outro i cant figure out the two lower notes so 
substituted them and it sounds kinda weird but i figured the high part out for you guys 
have some fun with:

e|---------------------|
B|---------------------|
G|-11--9--7--6--7/9----|
D|---0--0--0--0----0---|
A|----0--0--0--0----0--|
E|---------------------|

e|----------------------|
B|----------------------|
G|-11--9--7--6--7-9-7-6~|
D|---0--0--0--0---------|
A|----0--0--0--0--------|
E|----------------------|

Thanks to the other guy who posted the other tab to at least start something and now its 
much but ive done a little bit more and hopefully someone else will be able to add on 
this. have fun and e-mail me anything you correct. popwarsk8errp@gmail.com thanks guys peace.
Tap to rate this tab
 
# A B C D E F G H I J K L M N O P Q R S T U V W X Y Z