Song name
# A B C D E F G H I J K L M N O P Q R S T U V W X Y Z

Fingertips - Something Has Broken tab

Help us improve GuitareTab! Take a short survey!
Fingertips - Something has Broken



intro:     

e|-------------------------------------------------|      
B|-----------1-------------------------------------|
G|-----2-----------2-----------------0-------------|
D|-----------------------2-----2-----------2-----2-|
A|--0-----0-----0-----0-----3-----3-----3-----3----|
E|-------------------------------------------------| \
                                                      \
                                                       \  2x    
                                                       /  
e|-------------------------------------------|        /
B|-------------------------------------------|       / 
G|----------2--------------------------------|
D|----2-----------2-----------------3-----2--|
A|----------------------3-----3--------------|
E|-3-----3-----3-----3-----3-----3-----3-----|


Tab post by: DigasMC
Related for Something Has Broken tab