Song name
# A B C D E F G H I J K L M N O P Q R S T U V W X Y Z

Fink - Pills In My Pocket tab

PILLS IN MY POCKET - FINK
TUNING - D G D G A# d

(I searched for this song for a while and couldnt find any decent tabs for
 it so i took matters into my own hands - I am aware that this is less than
 perfect and incomplete so feel free to improve it)

- listen to the song to work out the strumming - most of it is an outline

INTRO

D -  -----0-------0--0--0--0-------0--0--0--0-------(4/5(-----|
A#-  -----0--2h0--2--2--2--0-------0--0--0--0-----------------|
G -  -----0-------0--0--0--0-------3--2--1--0-----------------|
D -  --0--0----------------1--3h5--------------5/3------------|
G -  --0------------------------------------------------------|
D -  ---------------------------------------------------------|

VERSE

D -  -----0-------0--0--0--0--0--0--0--0--0-------0--0--0--0-------4/5-------|
A#-  -----0--2h0--2--2--2--0--0--2--2--2--0-------0--0--0--0-----------------|
G -  -----0-------0--0--0--0--0--0--0--0--0-------3--2--1--0-----------------|
D -  --0--0----------------1--0-----------1--3h5--------------5/3------------|
G -  --0---------------------------------------------------------------------|
D -  --0---------------------------------------------------------------------|


CHORUS


D -  --0---0---|
A#-  --0---0---|
G -  --0---3---|
D -  --1-/-3---|
G -  ----------|
D -  ----------|
Tap to rate this tab
# A B C D E F G H I J K L M N O P Q R S T U V W X Y Z