Song name
# A B C D E F G H I J K L M N O P Q R S T U V W X Y Z

Fink - All Cried Out tab

FINK - ALL CRIED OUT

Hi,
since this one hasn't been tabbed yet, i thought, i'd give it a try... it's not 100% 
i know, but i guess it'll be allright to get started..
it's a bit of a mix of fink's video tab (http://www.youtube.com/watch?v=Q59qKZ-YTig) and 
album version..
Listen to the song for timing, etc...

Tuning is DADGAD.

Cheers


INTRO

D |---------x---------x---------x---------x---------x---------x---------x---------x-|
A |---------x---------x---------x---------x---------x---------x---------x------0--x-|
G |---2-----x---0h2-0-x-0-------x------0--x---------x---------x---------x---------x-|
D |---0-----x---0---0-x-0-------x---0-----x---5-----x---5-----x-----5---x-8-------x-|
A |---------x---------x-1-------x-1-------x---5-----x---------x---5-----x-8-------x-|
D |---0-----x-0-------x---------x---------x-5-------x-5-------x-5-------x-8-------x-|


D |---------x---------x---------x---------x---------x---------x---------x---------x-|
A |---------x----3p0--x---------x------0--x---------x---------x---------x------0--x-|
G |---2-----x---------x---2-----x---------x--0------x------0--x------0--x---------x-|
D |---0-----x---------x---0-----x---0-----x--0------x---0-----x---0--2--x-8-------x-|
A |---------x---------x---------x---------x---------x---------x---------x-8-------x-|
D |0--0-----x-0-------x-3-------x-3-------x--3------x-3-------x-3-------x-8-------x-|


D |---------x---------x---------x---------x---------x---------x---------x---------x-|
A |---------x---------x---------x------0--x---------x---------x---------x---------x-|
G |---2-----x---2p0---x-0-------x------0--x---0-----x---------x-0-------x-----0---x-|
D |---0-----x---0-----x-0-------x---0-----x---2-----x---2~----x-2-------x---2-----x-|
A |---------x---------x-1-------x-1-------x-3-------x-0-------x-2-------x-2-------x-|
D |0--0-----x-0-------x---------x---------x---------x---------x---------x---------x-|


D |---------x---------x---------x---------x---------x---------x---------x---------x-|
A |---------x---------x---------x-----0---x---------x---------x---------x---------x-|
G |-0-------x---0---0-x---------x-------0-x---------x---------x---------x---------x-|
D |-3-------x---3---2-x-5-------x---------x---7-----x-7-7-----x-7----7--x-5----3--x-|
A |-1-------x-1-------x-5-------x---------x---7-----x-7-7-----x-7----7--x-5----3--x-|
D |---------x---------x-5-------x-5-------x-7-------x-7-7-----x-7----7--x-5----3--x-|


VERSE (x2)

D |---------x---------x---------x---------x---------x---------x---------x---------x-|
A |---------x---------x---------x---------x---------x---------x---------x------0--x-|
G |---2-----x---0h2-0-x-0-------x------0--x---------x---------x---------x---------x-|
D |---0-----x---0---0-x-0-------x---0-----x---5-----x---5-----x-----5---x-8-------x-|
A |---------x---------x-1-------x-1-------x---5-----x---------x---5-----x-8-------x-|
D |0--0-----x-0-------x---------x---------x-5-------x-5-------x-5-------x-8-------x-|


D |---------x---------x---------x---------x---------x---------x---------x---------x-|
A |---------x----3p0--x---------x------0--x---------x---------x---------x------0--x-|
G |---2-----x---------x---2-----x---------x--0------x------0--x------0--x---------x-|
D |---0-----x---------x---0-----x---0-----x--0------x---0-----x---0--2--x-8-------x-|
A |---------x---------x---------x---------x---------x---------x---------x-8-------x-|
D |0--0-----x-0-------x-3-------x-3-------x--3------x-3-------x-3-------x-8-------x-|


D |---------x---------x---------x---------x---------x---------x---------x---------x-|
A |---------x---------x---------x------0--x---------x---------x---------x---------x-|
G |---2-----x---2p0---x-0-------x------0--x---0-----x---------x-0-------x-----0---x-|
D |---0-----x---0-----x-0-------x---0-----x---2-----x---2~----x-2-------x---2-----x-|
A |---------x---------x-1-------x-1-------x-3-------x-0-------x-2-------x-2-------x-|
D |0--0-----x-0-------x---------x---------x---------x---------x---------x---------x-|


D |---------x---------x---------x---------x---------x---------x---------x---------x-|
A |---------x---------x---------x-----0---x---------x---------x---------x---------x-|
G |-0-------x---0---0-x---------x-------0-x---------x---------x---------x---------x-|
D |-3-------x---3---2-x-5-------x---------x---7-----x-7-7-----x-7----7--x-5----3--x-|
A |-1-------x-1-------x-5-------x---------x---7-----x-7-7-----x-7----7--x-5----3--x-|
D |---------x---------x-5-------x-5-------x-7-------x-7-7-----x-7----7--x-5----3--x-|

CHORUS

D |---------x---------x---------x---------x---------x---------x---------x---------x-|
A |---------x---------x---------x---------x---------x---------x---------x---------x-|
G |-2-------x-2-2-----x-2----2--x-2-2-2---x---------x---------x---------x---------x-|
D |-0-------x-0-0-----x-0----0--x-0-0-0---x-0-3-----x-3-3-----x-3/5--5--x-5----3--x-|
A |---------x---------x---------x---------x-0-3-----x-3-3-----x-3/5--5--x-5----3--x-|
D |-0-------x-0-0-----x-0----0--x-0-0-0---x-0-3-----x-3-3-----x-3/5--5--x-5----3--x-|


D |---------x---------x---------x---------x---------x---------x---------x---------x-|
A |---------x---------x---------x---------x---------x---------x---------x---------x-|
G |---2-----x-2-2-----x-2----2--x-2-2-2---x---------x---------x---------x---------x-|
D |---0-----x-0-0-----x-0----0--x-0-0-0---x-0-3-----x-3-3-----x-3/5--5--x-5----3--x-|
A |---------x---------x---------x---------x-0-3-----x-3-3-----x-3/5--5--x-5----3--x-|
D |-0-------x-0-0-----x-0----0--x-0-0-0---x-0-3-----x-3-3-----x-3/5--5--x-5----3--x-|


BRIDGE/SOLO

D |---------x---------x---------x-------------------x---------x---------------------|
A |---------x---------x---------x-------------------x---------x------0--------------|
G |---2-----x---------x-2~------x-------------------x---------x---------------------|
D |---0-----x-3-------x-0-------x-3-----------------x-----3---x-5-------5-5-3-2-0---|
A |---------x---5-3---x---------x---5-3-0-----------x---3-----x-5-----------------3-|
D |-0-------x---------x-0-------x---------5-3-------x-3-------x-5-------------------|


D |---------x---------x-----------------------------x---------x---------x---------x-|
A |---------x---------x-----------------------------x---------x---------x------0--x-|
G |-2~------x-----2---x-5/7----5--------------------x---------x-----0---x---------x-|
D |-0-------x---0-----x-----------5-3---------------x-----3---x---0-1---x-8-------x-|
A |---------x---------x----------------5-5-3-0------x---3-----x---------x-8-------x-|
D |---------x-0-------x------------------------3----x-3-------x-3-------x-8-------x-|


VERSE (x1)

D |---------x---------x---------x---------x---------x---------x---------x---------x-|
A |---------x---------x---------x---------x---------x---------x---------x------0--x-|
G |---2-----x---0h2-0-x-0-------x------0--x---------x---------x---------x---------x-|
D |---0-----x---0---0-x-0-------x---0-----x---5-----x---5-----x-----5---x-8-------x-|
A |---------x---------x-1-------x-1-------x---5-----x---------x---5-----x-8-------x-|
D |0--0-----x-0-------x---------x---------x-5-------x-5-------x-5-------x-8-------x-|


D |---------x---------x---------x---------x---------x---------x---------x---------x-|
A |---------x----3p0--x---------x------0--x---------x---------x---------x------0--x-|
G |---2-----x---------x---2-----x---------x--0------x------0--x------0--x---------x-|
D |---0-----x---------x---0-----x---0-----x--0------x---0-----x---0--2--x-8-------x-|
A |---------x---------x---------x---------x---------x---------x---------x-8-------x-|
D |0--0-----x-0-------x-3-------x-3-------x--3------x-3-------x-3-------x-8-------x-|


D |---------x---------x---------x---------x---------x---------x---------x---------x-|
A |---------x---------x---------x------0--x---------x---------x---------x---------x-|
G |---2-----x---2p0---x-0-------x------0--x---0-----x---------x-0-------x-----0---x-|
D |---0-----x---0-----x-0-------x---0-----x---2-----x---2~----x-2-------x---2-----x-|
A |---------x---------x-1-------x-1-------x-3-------x-0-------x-2-------x-2-------x-|
D |0--0-----x-0-------x---------x---------x---------x---------x---------x---------x-|


D |---------x---------x---------x---------x---------x---------x---------x---------x-|
A |---------x---------x---------x-----0---x---------x---------x---------x---------x-|
G |-0-------x---0---0-x---------x-------0-x---------x---------x---------x---------x-|
D |-3-------x---3---2-x-5-------x---------x---7-----x-7-7-----x-7----7--x-5----3--x-|
A |-1-------x-1-------x-5-------x---------x---7-----x-7-7-----x-7----7--x-5----3--x-|
D |---------x---------x-5-------x-5-------x-7-------x-7-7-----x-7----7--x-5----3--x-|

CHORUS

D |---------x---------x---------x---------x---------x---------x---------x---------x-|
A |---------x---------x---------x---------x---------x---------x---------x---------x-|
G |-2-------x-2-2-----x-2----2--x-2-2-2---x---------x---------x---------x---------x-|
D |-0-------x-0-0-----x-0----0--x-0-0-0---x-0-3-----x-3-3-----x-3/5--5--x-5----3--x-|
A |---------x---------x---------x---------x-0-3-----x-3-3-----x-3/5--5--x-5----3--x-|
D |-0-------x-0-0-----x-0----0--x-0-0-0---x-0-3-----x-3-3-----x-3/5--5--x-5----3--x-|


D |---------x---------x---------x---------x---------x---------x---------x---------x-|
A |---------x---------x---------x---------x---------x---------x---------x---------x-|
G |---2-----x-2-2-----x-2----2--x-2-2-2---x---------x---------x---------x---------x-|
D |---0-----x-0-0-----x-0----0--x-0-0-0---x-0-3-----x-3-3-----x-3/5--5--x-5----3--x-|
A |---------x---------x---------x---------x-0-3-----x-3-3-----x-3/5--5--x-5----3--x-|
D |-0-------x-0-0-----x-0----0--x-0-0-0---x-0-3-----x-3-3-----x-3/5--5--x-5----3--x-|


BRIDGE/SOLO

D |---------x---------x---------x-------------------x---------x---------------------|
A |---------x---------x---------x-------------------x---------x------0--------------|
G |---2-----x---------x-2~------x-------------------x---------x---------------------|
D |---0-----x-3-------x-0-------x-3-----------------x-----3---x-5-------5-5-3-2-0---|
A |---------x---5-3---x---------x---5-3-0-----------x---3-----x-5-----------------3-|
D |-0-------x---------x-0-------x---------5-3-------x-3-------x-5-------------------|


D |---------x---------x-----------------------------x---------x---------x---------x-|
A |---------x---------x-----------------------------x---------x---------x------0--x-|
G |-2~------x-----2---x-5/7----5--------------------x---------x-----0---x---------x-|
D |-0-------x---0-----x-----------5-3---------------x-----3---x---0-1---x-8-------x-|
A |---------x---------x----------------5-5-3-0------x---3-----x---------x-8-------x-|
D |---------x-0-------x------------------------3----x-3-------x-3-------x-8-------x-|

BRIDGE 2

D |---------x---------x---------x---------x---------x---------x---------x---------x-|
A |---------x---------x---------x---------x---------x---------x---------x---------x-|
G |-2-------x-2-2-----x-2----2--x-2-2-2---x---------x---------x---------x---------x-|
D |-0-------x-0-0-----x-0----0--x-0-0-0---x-0-3-----x-3-3-----x-3/5--5--x-5----3--x-|
A |---------x---------x---------x---------x-0-3-----x-3-3-----x-3/5--5--x-5----3--x-|
D |-0-------x-0-0-----x-0----0--x-0-0-0---x-0-3-----x-3-3-----x-3/5--5--x-5----3--x-|


D |---------x---------x---------x---------x---------x---------x---------x---------x-|
A |---------x---------x---------x---------x---------x---------x---------x---------x-|
G |-2-------x-2-2-----x-2----2--x-2-2-2---x---------x---------x---------x---------x-|
D |-0-------x-0-0-----x-0----0--x-0-0-0---x-0-3-----x-3-3-----x-3/5--5--x-5----3--x-|
A |---------x---------x---------x---------x-0-3-----x-3-3-----x-3/5--5--x-5----3--x-|
D |-0-------x-0-0-----x-0----0--x-0-0-0---x-0-3-----x-3-3-----x-3/5--5--x-5----3--x-|


D |---------x---------x---------x---------x---------x---------x---------x---------x-|
A |---------x---------x---------x---------x---------x---------x---------x---------x-|
G |-2-------x-2-2-----x-2----2--x-2-2-2---x---------x---------x---------x---------x-|
D |-0-------x-0-0-----x-0----0--x-0-0-0---x-0-3-----x-3-3-----x-3/5--5--x-5----3--x-|
A |---------x---------x---------x---------x-0-3-----x-3-3-----x-3/5--5--x-5----3--x-|
D |-0-------x-0-0-----x-0----0--x-0-0-0---x-0-3-----x-3-3-----x-3/5--5--x-5----3--x-|


D |---------x---------x---------x---------x---------x---------x---------x---------x-|
A |---------x---------x---------x---------x---------x---------x---------x---------x-|
G |-2-------x-2-2-----x-2----2--x-2-2-2---x---------x---------x---------x---------x-|
D |-0-------x-0-0-----x-0----0--x-0-0-0---x-0-3-----x-3-3-----x-3/5--5--x-5-5-----x-|
A |---------x---------x---------x---------x-0-3-----x-3-3-----x-3/5--5--x-5-5-----x-|
D |-0-------x-0-0-----x-0----0--x-0-0-0---x-0-3-----x-3-3-----x-3/5--5--x-5-5-----x-|


D |---------x---------x---------x---------x---------x---------x---------x---------x-|
A |---------x---------x---------x---------x---------x---------x---------x---------x-|
G |---------x---------x---------x---------x---------x---------x---------x---------x-|
D |-8-------x-8-8-5---x-5-------x-----5---x-7-------x-7-7-----x-7----7--x-5----3--x-|
A |-8-------x-8-8-5---x-5-------x---5-----x-7-------x-7-7-----x-7----7--x-5----3--x-|
D |-8-------x-8-8-5---x-5-------x-5-------x-7-------x-7-7-----x-7----7--x-5----3--x-|


D |---------x---------x---------x-------------------x---------x---------x---------x-|
A |---------x---------x---------x-------------------x---------x---------x---------x-|
G |---2-----x---------x-2~------x-------------------x---------x---------x---------x-|
D |---0-----x-3-------x-0-------x-3-----------------x-----3---x-3/5--5--x-5----3--x-|
A |---------x---5-3---x---------x---5-3-0-----------x---3-----x-3/5--5--x-5----3--x-|
D |-0-------x---------x-0-------x---------5-3-------x-3-------x-3/5--5--x-5----3--x-|


D |---------x---------x-----------------------------x---------x---------x---------x-|
A |---------x---------x-----------------------------x---------x---------x---------x-|
G |---2~----x-----2---x-5/7----5--------------------x---------x---------x---------x-|
D |---0-----x---0-----x-----------5-3---------------x-----3---x-3/5--5--x-5----3--x-|
A |---------x---------x----------------5-5-3-0------x---3-----x-3/5--5--x-5----3--x-|
D |-0-------x-0-------x------------------------3----x-3-------x-3/5--5--x-5----3--x-|

Finale

D |---------x---------x---------x---------x---------x---------x---------x---------x-|
A |---------x---------x---------x---------x---------x---------x---------x---------x-|
G |-2-------x-2-2-----x-2----2--x-2-2-2---x---------x---------x---------x---------x-|
D |-0-------x-0-0-----x-0----0--x-0-0-0---x-0-3-----x-3-3-----x-3/5--5--x-5----3--x-|
A |---------x---------x---------x---------x-0-3-----x-3-3-----x-3/5--5--x-5----3--x-|
D |-0-------x-0-0-----x-0----0--x-0-0-0---x-0-3-----x-3-3-----x-3/5--5--x-5----3--x-|


D |---------x---------x---------x---------x---------x---------x---------x---------x-|
A |---------x---------x---------x---------x---------x---------x---------x---------x-|
G |---2-----x-2-2-----x-2----2--x-2-2-2---x---------x---------x---------x---------x-|
D |---0-----x-0-0-----x-0----0--x-0-0-0---x-0-3-----x-3-3-----x-3/5--5--x-5----3--x-|
A |---------x---------x---------x---------x-0-3-----x-3-3-----x-3/5--5--x-5----3--x-|
D |-0-------x-0-0-----x-0----0--x-0-0-0---x-0-3-----x-3-3-----x-3/5--5--x-5----3--x-|


D |---------x---------x---------x---------x---------x---------x---------x---------x---|
A |---------x---------x---------x---------x---------x---------x---------x---------x---|
G |-----2---x-----2---x-----2---x-----2---x-----2---x-----2---x-----2---x-----2---x---|
D |---0-----x---0-----x---0-----x---0-----x---0-----x---0-----x---0-----x---0-----x---|
A |---------x---------x---------x---------x---------x---------x---------x---------x---|
D |-0-------x-0-------x-0-------x-0-------x-0-------x-0-------x-0-------x-0-------x---|


D |---------x---------x---------x---------x---------x---------x---------------------|
A |---------x---------x---------x---------x---------x---------x---------------------|
G |-----2---x-----2---x-----2---x-----2---x-----2---x-----2---x-2---2/7~------------|
D |---0-----x---0-----x---0-----x---0-----x---0-----x---0-----x---------------------|
A |---------x---------x---------x---------x---------x---------x---------------------|
D |-0-------x-0-------x-0-------x-0-------x-0-------x-0-------x---------------------|


D |-------------------x-|
A |-------------------x-|
G |-2p0---------------x-|
D |-------------------x-|
A |-------------------x-|
D |-------------------x-|
Tap to rate this tab
 
# A B C D E F G H I J K L M N O P Q R S T U V W X Y Z