Song name
# A B C D E F G H I J K L M N O P Q R S T U V W X Y Z

Fink - Yesterday Was Hard On All Of Us tab

-----------------------------------------------------------------------------
Yesterday Was Hard On All Of Us - Fink
-----------------------------------------------------------------------------

Tabbed by: Mike
Email:

Tuning: Standard

The song is basically an assemblage of the following riffs:


e|----------------|
B|----------------|
G|-------------(0)|
D|---------0------| A
A|-----9----------|
E|-8-8---8---8----|

e|----------------|
B|----------------|
G|-------------(0)|
D|---------0------| B
A|-----5----------|
E|-7-7---7---7----|

e|----------------|
B|----------------|
G|-------------(0)|
D|---------0------| C
A|-----3----------|
E|-5-5---5---5----|

e|----------------|
B|----------------|
G|-------------(0)|
D|---------0------| D
A|-----3----------|
E|-3-3---3---3----|

e|----------------|
B|----------------|
G|-------------(0)|
D|---------0------| D*
A|-----2----------|
E|-3-3---3---3----|

e|----------------|
B|----------------|
G|-------------(0)|
D|---------0------| E
A|-----3----------|
E|-1-1---1---1----|

e|----------------|
B|----------------|
G|-------------(0)|
D|---------0------| E*
A|-----0----------|
E|-1-1---1---1----|

Use fingerpicking.

Regarding the notes in parentheses: I suggest you play them, play another string 
(holding the shape of the riff) or play nothing at all according to your own taste and musicality.
Listen to the album and live versions to get an idea. I might upload a full cover of 
this song if I have the time to soundcloud /mkhn

Here I show you how many times and in which order to repeat the riffs. I've added some 
time marks and separations that might help you.
I hope it's not too complicated. Enjoy!


2A 2C 2E 4C | 2A 2C 2E 4C | 2A 2C 2E 4C | 2A 2C 2E 4C | (0:49)

1A 1B 1C 1D 2E 4C 2E (1:04)

2A 2B 2C 2E | 2A 2C 2D* 2E (1:24)

1C 1D* 1E 1E* | 1C 1D* 1E 1E* | 1C 1D* 4E (1:42)

1A 1B 2C 2E 4C (1:54)

2A 2C 2E 4C | 2A 2C 2E 4C (2:19)

1A 1B 1C 1D* 2E 4C 1E 1E(*?) (2:34)

2A 2B 2C 2E | 2A 2C 2D* 1E 1E* (2:53)

1C 1D* 1E 1E* | 1C 1D* 1E 1E* | 1C 1D* 4E (3:10)

2A 2C 2E 4C | 2A 2C 2E 4C | 2A 2C 2E 4C (3:47)

1A 1B 1C 1D* 2E 4C 2E (4:02)

2A 2B 2C 2E | 2A 2C 2D* 2E (4:22)

1C 1D* 1E 1E* | 1C 1D 1E 1E* | 1C 1D* 1E 1E* | 1C 1E 1C 1E 1C 1E 1C
Tap to rate this tab
# A B C D E F G H I J K L M N O P Q R S T U V W X Y Z