Song name
# A B C D E F G H I J K L M N O P Q R S T U V W X Y Z

Fink - Honesty tab

-------------------------------------------------------------------------------
                             Honesty - Fink
-------------------------------------------------------------------------------
Tabbed by: Judith91
E-mail: judith_boeschoten@hotmail.com

Tuning: D A D G B E

Intro and verse
D|------------------------|-------------------------|------------------------|------------------------|
A|------------------------|-------------------------|------------------------|------------------------|
D|------------------------|-------------------------|------------------------|------------------------|
G|----3-----3-----3-----3-|----3-----3-----3-----3--|----3-----3-----2-----0-|----0-----0-----0-----0-|
B|------------------------|-------------------------|------------------------|------------------------|
E|-0-----0-----0-----0----|-0-----0-----0-----0-----|-0-----0-----3-----3----|-2-----2-----2-----2----|
                               Who was it telling me honestly, honesty is all about the time

D|------------------------|-------------------------|------------------------|------------------------|
A|------------------------|-------------------------|------------------------|------------------------|
D|------------------------|-------------------------|------------------------|------------------------|
G|----0-----0-----0-----0-|----2-----0-----0-----0--|----0-----0-----2-----2-|----2-----2-----3-----3-|
B|------------------------|----------------8-----8--|----8-----8-----4-----4-|----4-----4-------------|
E|-2-----2-----2-----2----|-3-----3-----5-----5-----|-5-----5-----2-----2----|-2-----2-----0-----0----|
                Oh my bad, there i was thinking honesty was all about truth

D|------------------------|-------------------------|------------------------|------------------------|
A|------------------------|-------------------------|------------------------|------------------------|
D|------------------------|-------------------------|------------------------|------------------------|
G|----3-----3-----3-----3-|----2-----2-----3-----3--|----2-----0-----0-----0-|----0-----0-----0-----0-|
B|------------------------|-0-----0-----1-----1-----|------------------------|------------------------|
E|-0-----0-----0-----0----|-------------------------|--3-----3-----2-----2---|-2-----2-----2-----2----|
        Oh, woe is me

D|------------------------|-------------------------|------------------------|------------------------|
A|------------------------|-------------------------|------------------------|------------------------|
D|------------------------|-------------------------|------------------------|------------------------|
G|----0-----0-----2-----0-|----3-----3-----3-----3--|----2-----2-----2-----2-|----0-----0-----0-----0-|
B|------------------------|--1-----1----1-----1-----|------------------------|------------------------|
E|-2-----2-----3-----3----|-------------------------|--3----3-----3-----3----|-3-----3-----3-----3----|
                                                       And your honesty

D|------------------------|
A|------------------------|
D|------------------------|
G|----0-----0-----0-----0-|
B|------------------------|
E|-3-----3-----3-----3----|


chorus
D|------------------------|-------------------------|------------------------|------------------------|
A|------------------------|-------------------------|------------------------|------------------------|
D|------------------------|-------------------------|------------------------|------------------------|
G|----3-----3-----3-----3-|----2-----2-----2-----2--|----2-----2-----2-----2-|----3-----3-----3-----3-|
B|------------------------|-3-----3-----3-----3-----|------------------------|-1-----1-----1-----1----|
E|-5-----5-----5-----5----|-------------------------|-3-----3-----3-----3----|------------------------|
               We've had conversations                  about the past          it's
D|------------------------|-------------------------|------------------------|------------------------|
A|------------------------|-------------------------|------------------------|------------------------|
D|------------------------|-------------------------|------------------------|------------------------|
G|---3------3-----3-----3-|----3-----3-----3-----3--|----3-----3-----3-----3-|----4-----4-----4-----4-|
B|------------------------|-4-----4-----4-----4-----|------------------------|-5-----5-----5-----5----|
E|-5-----5-----5-----5----|-------------------------|-0-----0-----0-----0----|------------------------|
        Taken long enough to see                        your true colors
D|------------------------|-------------------------|------------------------|------------------------|
A|------------------------|-------------------------|------------------------|------------------------|
D|------------------------|-------------------------|------------------------|------------------------|
G|----3-----3-----3-----3-|----2-----2-----2-----2--|----2-----2-----2-----2-|----3-----3-----3-----3-|
B|------------------------|-3-----3-----3-----3-----|------------------------|-1-----1-----1-----1----|
E|-5-----5-----5-----5----|-------------------------|-3-----3-----3-----3----|------------------------|
                You've got so many baby        You're like a fucking rainbow            just
D|------------------------|-------------------------|------------------------|------------------------|
A|------------------------|-------------------------|------------------------|------------------------|
D|------------------------|-------------------------|------------------------|------------------------|
G|---3------3-----3-----3-|----3-----3-----3-----3--|----3-----3-----3-----3-|----3-----3-----3-----3-|
B|------------------------|-4-----4-----4-----4-----|------------------------|------------------------|
E|-5-----5-----5-----5----|-------------------------|-0-----0-----0-----0----|-0-----0-----0-----0----|
        let me revel in your blue                       notes
Tap to rate this tab
# A B C D E F G H I J K L M N O P Q R S T U V W X Y Z