Song name
# A B C D E F G H I J K L M N O P Q R S T U V W X Y Z

Fink - Foot In The Door tab

-------------------------------------------------------------------------------
			     Foot in the Door - Fink
-------------------------------------------------------------------------------
Tabbed by: JRArcher27

Tuning:DADGAd

Capo on 3rd Fret.
All notes are relative to the capo.

Intro:

d|---------------------------------------------------------------------------|
A|---------------------------------------------------------------------------|
G|-----------0~---0-----------------------------(0)-----(0)------------------|
D|----------------------0~---0-------------------0-------0-------------------|
A|-----------5/7--5--------------(5)~------------2h3-p2--2h3-p2--(0)h2~------|
D|--2~------------------7/9--7----5~------------------------------2~---------|

d|---------------------------------------------------------------------------|
A|-----------7----------0----------------------------------------------------|
G|-----------7h9-p(7)---7\2p0----(0)~-----------(0)--------------------------|
D|--------------------------------0~-------------0---------------------------|
A|-------------------------------(5)~------------2h3~-------p(2)-(2)~--------|
D|--------------------------------5~------------------------------2~---------|

d|---------------------------------------------------------------------------|
A|---------------------------------------------------------------------------|
G|-------------------------------(0)~-----------(0)-----(0)------------------|
D|-------------0-2----------------x--------------0-------0-------------------|
A|-----------4-----4-2~-------p0--5~-------------2h3-p2--2h3-p2--(0)h2~------|
D|--------------------------------5~------------------------------2~---------|

d|---------------------------------------------------------------------------|
A|---------------------------------------------------------------------------|
G|-------------------------------------(0)-(0)-(0)---(0)-(0)-----------------|
D|-------------0-2----------------------0---0---0-0---0-0-0-0-0--------------|
A|--------/2-4-----4-2~-------p0--5~----3---2---0-0---0-3-3-2-0-2~-----------|
D|--------------------------------5~----------------------------2~-----------|


Fill 1 (Used throughout the song):

d|-------------------------------------|
A|-------------------------------------|
G|--(0)-(0)-(0)---(0)-(0)--------------|
D|---0---0---0-0---0-0-0-0-0-----------|
A|---3---2---0-0---0-3-3-2-0-2~--------|
D|---------------------------2~--------|


Verse/Bridge Chords:

d|--(0)----(0)---|
A|--(0)----(0)---|
G|---0------0----| (Combine with Fill 1)
D|---0------0----|
A|---2------5----|
D|---2------5----|

Chorus Chords:


d|--(0)----(0)----(0)----(0)----(0)---|
A|--(0)----(0)----(0)----(0)----(0)---|
G|---0------0------0------0------0----| (Combine with Fill 1)
D|---5------5------5------0------0----|
A|---7------2------3------2------5----|
D|---7--------------------2------5----|




************************************

| /   slide up
| \   slide down
| h   hammer-on
| p   pull-off
| ~   vibrato
| +   harmonic
| x   Mute note
| b   Bend
| pb  Pre-bend
| br  Bend release
| pbr Pre-bend release
| brb Bend release bend

************************************
Tap to rate this tab
# A B C D E F G H I J K L M N O P Q R S T U V W X Y Z