Song name
# A B C D E F G H I J K L M N O P Q R S T U V W X Y Z

Fink - Berlin Sunrise tab

-------------------------------------------------------------------------------
			     Berlin Sunrise  - Fink
-------------------------------------------------------------------------------
Tabbed by: JRArcher27

Tuning: EADGBe (Standard)

Note: I'm almost certain that these are the chord shapes used on the album version
      of the song. Chords shown in brackets are alternate voicings that are played
      by the second guitar - it's up to you which one you prefer to use when
      playing with one guitar. 

      The chord names shown above the tabbed chords are the underlying structure of
      the song. If you're playing with two guitars, one can follow these chords while
      the other plays the melody.

      The  second guitar melody heard throughout the intro and verses is achieved
      by playing the B and high e strings while following the same chord progression
      as the first guitar.

      This tab only shows the chords and the progression. Listen to the song to
      figure out the rhythm.

Intro/Verse Chords:
 
      Fmaj7       C/G    Am          Em

e|-----0-----0-----0-----0-----0-----0-----0---------------------------------|
B|-----1-----3-----3-----3-----1-----1-----0---------------------------------|
G|-----2-----2-----0-----2-----2-----0-----0---------------------------------|
D|-----3-----x-----2-----2-----2-----2-----2---------------------------------|
A|-----3-----3-----x-----0-----0-----2-----2---------------------------------|
E|-----1*----1*----3-----------------0-----0---------------------------------|


Chorus Chords:

      Fmaj7  G6   C#m7/G#     Am        E7
     
e|-----0-----0-----4----------0---------0------------------------------------|
B|-----1-----3-----5--(0)-----1--(5)----0----(0)-----------------------------|
G|-----2-----4-----4--(4)-----2--(5)----1----(4)-----------------------------|
D|-----3-----5-----6--(6)-----2--(7)----0h3--(6)-----------------------------|
A|-----3-----5-----4----------0--(0)----2------------------------------------|
E|-----1*----3*----4--(4)*--------------0----(4)*----------------------------|


Bridge/Outro Chords:

      Am7   Bm7   Fmaj7 C/G    Em     Am7

e|-----0-----0-----0-----0-----0-0-----0-------------------------------------|
B|-----1-----3-----1-----1-----1-1-----1-------------------------------------|
G|-----0-----0-----2-----0-----0-0-----0-------------------------------------|
D|-----2-----4-----3-----2-----0-0-----2-------------------------------------|
A|-----0-----0-----3-----3-----2-0-----0-------------------------------------|
E|-----------------------3---------------------------------------------------|


The Fmaj7 > C/G > Em > Am7 progression is repeated a few times before returning
to the Am7 > Bm7 > Fmaj7... part. Listen to the song or check out some live
videos to get the idea.


************************************

| *   Play with thumb
| /   slide up
| \   slide down
| h   hammer-on
| p   pull-off
| ~   vibrato
| +   harmonic
| x   Mute note
| b   Bend
| pb  Pre-bend
| br  Bend release
| pbr Pre-bend release
| brb Bend release bend

************************************
Tap to rate this tab
 
# A B C D E F G H I J K L M N O P Q R S T U V W X Y Z