Song name
# A B C D E F G H I J K L M N O P Q R S T U V W X Y Z

Finkelstiens - Financing Bob tab

FINANCING BOB--THE FINKELSTIENS
Album: The dawning of a new error
Tabbed by frikkie jacobs
Email: frikkie.jacobs@zilwerwind.com

The finkelstiens are a pop-rock band from south africa.
they are very popular here and thier songs rock.
Check them out at www.finkelstiens.co.za

intro

A  F#  D  E

E--5-4---5-5-4---5-4---5-5-4-----------|
B------5-------5-----5-------5---------|
G--------------------------------------|
D--------------------------------------|
A--------------------------------------|
E--------------------------------------|

E--5-4---5-5-4-2--5-4---4-5-7-5-4------|
B------3--------------3-----------5----|
G--------------------------------------|
D--------------------------------------|
A--------------------------------------|
E--------------------------------------|

verses (the time is here...)

A  F#  D  E

bridge (what the... heck is...)

D  A  F#  E

chorus (i'm not everything you think i am...)

A  F#  D  E

solo

E-5--5h7p5-4-2-----5-4-5-7--5-4---------|
B--------------2-3----------------------|
G---------------------------------------|
D---------------------------------------|
A---------------------------------------|
E---------------------------------------|

E--5-4---5-5-4---5-4---5-5-4-----------|
B------5-------5-----5-------5---------|
G--------------------------------------|
D--------------------------------------|
A--------------------------------------|
E--------------------------------------|
Tap to rate this tab
# A B C D E F G H I J K L M N O P Q R S T U V W X Y Z