Guitaretab - guitar tabs
Song name
# A B C D E F G H I J K L M N O P Q R S T U V W X Y Z

Finley - Fumo E Cenere tab

Tabbed By:Domenico

E-mail:
baratili@libero.it
                                                              Tuning:Standard

                      Intro/Verse (acoustic)
  D
e |----------------|----------------|----------------|----------------|
B |----5---5---5---|--6--6--6--6--6-|----5---5---5---|--6--6--6--6--6-|
G |----------------|----------------|----------------|----------------|
D |----------------|----------------|----------------|----------------|
A |----5---5---5---|--5--5--5--5--5-|----5---5---5---|--5--5--5--5--5-|
E |----------------|----------------|----------------|----------------|
  A#
e |----------------|----------------|----------------|----------------|
B |----1---1---1---|--3--3--3--3--3-|----1---1---1---|--3--3--3--3--3-|
G |----------------|----------------|----------------|----------------|
D |----------------|----------------|----------------|----------------|
A |----1---1---1---|--1--1--1--1--1-|----1---1---1---|--1--1--1--1--1-|
E |----------------|----------------|----------------|----------------|
  F                                 C
e |----------------|----------------|----------------|----------------|
B |----1---1---1---|--3--3--3--3--3-|----3---3---3---|--5--5--5--5--5-|
G |----------------|----------------|----------------|----------------|
D |----------------|----------------|----------------|----------------|
A |----------------|----------------|----3---3---3---|--3--3--3--3--3-|
E |----1---1---1---|--1--1--1--1--1-|----------------|----------------|
				                                       X 2
  D
e |----------------|----------------|----------------|----------------|
B |----5---5---5---|--6--6--6--6--6-|----5---5---5---|--6--6--6--6--6-|
G |----------------|----------------|----------------|----------------|
D |----------------|----------------|----------------|----------------|
A |----5---5---5---|--5--5--5--5--5-|----5---5---5---|--5--5--5--5--5-|
E |----------------|----------------|----------------|----------------|
  A#
e |----------------|----------------|----------------|----------------|
B |----1---1---1---|--3--3--3--3--3-|----1---1---1---|--3--3--3--3--3-|
G |----------------|----------------|----------------|----------------|
D |----------------|----------------|----------------|----------------|
A |----1---1---1---|--1--1--1--1--1-|----1---1---1---|--1--1--1--1--1-|
E |----------------|----------------|----------------|----------------|
  F                                 C
e |----------------|----------------|----------------|----------------|
B |----1---1---1---|--3--3--3--3--3-|----3---3---3---|--5--5--5--5--5-|
G |----------------|----------------|----------------|----------------|
D |----------------|----------------|----------------|----------------|
A |----------------|----------------|----3---3---3---|--3--3--3--3--3-|
E |----1---1---1---|--1--1--1--1--1-|----------------|----------------|
  C
e |----------------|----------------|
B |----3---3---3---|--5--5--5--5--5-|
G |----------------|----------------|
D |----------------|----------------|
A |----3---3---3---|--3--3--3--3--3-|
E |----------------|----------------|


Chorus (acoustic)

REm – 1 -    REm – 1 -    FA - 1 -    DO - 0 -
    - 3 -        - 3 -       - 1 -       - 1 -
    - 2 -        - 2 -       - 2 -       - 0 -
    - 0 -        - 0 -       - 3 -       - 2 -
    - 0 -        - 0 -       - 3 -       - 3 -
    - 0 -        - 0 -       - 1 -       - 0 -   X 5

[ Tab from: http://www.guitaretab.com/f/finley/75952.html ]
Verse (acoustic)
  D
e |----------------|----------------|----------------|----------------|
B |----5---5---5---|--6--6--6--6--6-|----5---5---5---|--6--6--6--6--6-|
G |----------------|----------------|----------------|----------------|
D |----------------|----------------|----------------|----------------|
A |----5---5---5---|--5--5--5--5--5-|----5---5---5---|--5--5--5--5--5-|
E |----------------|----------------|----------------|----------------|
  A#
e |----------------|----------------|----------------|----------------|
B |----1---1---1---|--3--3--3--3--3-|----1---1---1---|--3--3--3--3--3-|
G |----------------|----------------|----------------|----------------|
D |----------------|----------------|----------------|----------------|
A |----1---1---1---|--1--1--1--1--1-|----1---1---1---|--1--1--1--1--1-|
E |----------------|----------------|----------------|----------------|
  F                                 C
e |----------------|----------------|----------------|----------------|
B |----1---1---1---|--3--3--3--3--3-|----3---3---3---|--5--5--5--5--5-|
G |----------------|----------------|----------------|----------------|
D |----------------|----------------|----------------|----------------|
A |----------------|----------------|----3---3---3---|--3--3--3--3--3-|
E |----1---1---1---|--1--1--1--1--1-|----------------|----------------|

  D
e |----------------|----------------|----------------|----------------|
B |----5---5---5---|--6--6--6--6--6-|----5---5---5---|--6--6--6--6--6-|
G |----------------|----------------|----------------|----------------|
D |----------------|----------------|----------------|----------------|
A |----5---5---5---|--5--5--5--5--5-|----5---5---5---|--5--5--5--5--5-|
E |----------------|----------------|----------------|----------------|
  A#
e |----------------|----------------|----------------|----------------|
B |----1---1---1---|--3--3--3--3--3-|----1---1---1---|--3--3--3--3--3-|
G |----------------|----------------|----------------|----------------|
D |----------------|----------------|----------------|----------------|
A |----1---1---1---|--1--1--1--1--1-|----1---1---1---|--1--1--1--1--1-|
E |----------------|----------------|----------------|----------------|
  F                                 C
e |----------------|----------------|----------------|----------------|
B |----1---1---1---|--3--3--3--3--3-|----3---3---3---|--5--5--5--5--5-|
G |----------------|----------------|----------------|----------------|
D |----------------|----------------|----------------|----------------|
A |----------------|----------------|----3---3---3---|--3--3--3--3--3-|
E |----1---1---1---|--1--1--1--1--1-|----------------|----------------|
  A#
e |----------------|----------------|----------------|----------------|
B |----1---1---1---|--3--3--3--3--3-|----1---1---1---|--3--3--3--3--3-|
G |----------------|----------------|----------------|----------------|
D |----------------|----------------|----------------|----------------|
A |----1---1---1---|--1--1--1--1--1-|----1---1---1---|--1--1--1--1--1-|
E |----------------|----------------|----------------|----------------|

Chorus

1st GUITAR (acoustic)

REm – 1 -    REm – 1 -    FA - 1 -    DO - 0 -
    - 3 -        - 3 -       - 1 -       - 1 -
    - 2 -        - 2 -       - 2 -       - 0 -
    - 0 -        - 0 -       - 3 -       - 2 -
    - 0 -        - 0 -       - 3 -       - 3 -
    - 0 -        - 0 -       - 1 -       - 0 -   X6

2nd GUITAR (dist.)

REm – x -    REm – x -    FA - x -    DO - x -
    - 6 -        - 6 -       - x -       - x -
    - 7 -        - 7 -       - x -       - 5 -
    - 7 -        - 7 -       - 3 -       - 5 -
    - 5 -        - 5 -       - 3 -       - 3 -
    - x -        - x -       - 1 -       - x -   X4

----------------------------------------------------------------------------
Allora che ne pensate?Suona abbastanza bene no?Fatemi sapere per qualche accorgimento……Ciao
Related for Fumo E Cenere tab
Advertisement will be closed in 10 seconds