Guitaretab - guitar tabs
Song name
# A B C D E F G H I J K L M N O P Q R S T U V W X Y Z

Finley - Tutto Possibile tab

Intro (chitarra 1)
 e|-----------------------------------------------|
 B|-----------------------------------------------|
 G|-----77777777--77777777--77777777--7777--7--7--|
 D|-----77777777--77777777--77777777--7777--7--7--|X2
 A|-----55555555--44444444--00000000--0000--5--0--|
 E|-------------------------77777777--5555-----5--|

   Intro parte 2 (Chitarra 1)
 e|-----------------------------------------------|
 B|-----------------------------------------------|
 G|-----77777777--77777777--77777777--7777--7--7--|
 D|-----77777777--77777777--77777777--7777--7--7--|X2
 A|-----55555555--44444444--00000000--0000--5--0--|
 E|-------------------------77777777--5555-----5--|
  |
  |Intro parte 2 (Chitarra 2) <---(non so se c'Ŕ ma suona bene...)
 e|-----------------------------------------------|
 B|-----10--8--7--5--7--8--10--8--7---------------|
 G|------x--x--x--x--x--x---x--x--x---7-----------|
 D|------7--5--4--2--4--5---7--5--4---x~~~--------|X2
 A|-----------------------------------5-----------|
 E|-----------------------------------------------|

   D5                       Bm5
   7 e 30 la sveglia suona giÓ
                                 G5
   dopo notti di coca e havana club
                                  A5
   mi risveglio dentro a un incubo...
   D5                    Bm5
   Sembra quasi una follia
                       G5
   questa vita non Ŕ mia
                              A5
   Ŕ come un pugno nello stomaco...

   D5                         G5
   Guarda il cielo per un attimo
        D5            A5
   e vedrai...cambierÓ...

             D5                A5
   Se lo vuoi...tutto Ŕ possibile!
                Bm5                  G5
   Nulla inafferrabile...senza un limite.
             D5               A5
   Se lo vuoi...tu potrai vivere
                    Bm5                   G5
   un sogno irrealizzabile...senza un limite

   Ripetete Intro parte 2 (solamente chitarra 1)

  (D5)                       (Bm5)
   Salto in macchina e scappo via
                            (G5)
   in un film in una fotografia
                           (A5)
   verso il mondo delle favole...
  (D5)                (Bm5)
   Ma una strana melodia
                         (G5)
   da una scossa alla reltÓ

   ora Ŕ tutta un'altra musica!
[ Tab from: http://www.guitaretab.com/f/finley/81617.html ]
   D5                         G5
   Guarda il cielo per un attimo
        D5            A5
   e vedrai...cambierÓ...
             D5                A5
   Se lo vuoi...tutto Ŕ possibile!
                Bm5                  G5
   Nulla inafferrabile...senza un limite.
             D5               A5
   Se lo vuoi...tu potrai vivere
                    Bm5                   G5
   un sogno irrealizzabile...senza un limite

   Stop!
        Chitarra 1
 e|-----------------------------------------------|
 B|-----------------------------------------------|
 G|-----77777777--77777777--77777777--7777--7--7--|
 D|-----77777777--77777777--77777777--7777--7--7--|X2
 A|-----55555555--44444444--00000000--0000--5--0--|
 E|-------------------------77777777--5555-----5--|
  |     .. .. .   .. .. .   .. .. .   ...
  |
  |     Chitarra 2
 e|-----------------------------------------------|
 B|-----------------------------------------------|
 G|-----7~~~~~~~~~~~~~~~~~~~~~~~~~~~--9-7-6-------|
 D|-----------------------------------------------|
 A|-----------------------------------------------|X2
 E|-----------------------------------------------|


   Solo (Chitarra 1)
 e|-----------------------------------------------|
 B|-----------------------------------------------|
 G|-----77777777--77777777--77777777--7777--7--7--|
 D|-----77777777--77777777--77777777--7777--7--7--|X4
 A|-----55555555--44444444--00000000--0000--5--0--|
 E|-------------------------77777777--5555-----5--|
  |
  |Solo (Chitarra 2)
 e|-----------------------------------------------|
 B|-----10--8--7--5--7--8--10--8--7---------------|
 G|------x--x--x--x--x--x---x--x--x---7-----------|
 D|------7--5--4--2--4--5---7--5--4---x-----------|X4
 A|-----------------------------------5-----------|
 E|-----------------------------------------------|

             D5                A5
   Se lo vuoi...tutto Ŕ possibile!
                Bm5                  G5
   Nulla inafferrabile...senza un limite.
             D5               A5
   Se lo vuoi...tu potrai vivere
                    Bm5                   G5
   un sogno irrealizzabile...senza un limite

  Outro                        Fine
 e|--------------------|      e|----|
 B|--10--8--7--8--7--8-|      B|-7--|
 G|--------------------|      G|----|
 D|--------------------|X8    D|----|
 A|--------------------|      A|----|
 E|--------------------|      E|----|


Non sarÓ precisissimo ma mi sembra che suoni bene...in ogni caso ascoltate la canzone  
capire bene come suonarla

Se avete commenti imprecazioni o volete altri spartiti dei finley o altri (se ce li ho) 
mia mail Ŕ furio1290@hotmail.com

           --FoNt@--
"se puoi sognarlo, puoi farlo..."
Related for Tutto Possibile tab