Song name
# A B C D E F G H I J K L M N O P Q R S T U V W X Y Z

Finley - Niente Da Perdere tab

INTRO
e|-------------------------------------------------------------------------|
B|------5------------------------5------5/6--5------5/6---5----------------|
G|---7----5----5-4--5--------7-----5-----------5------------5---7--5-------|
D|---------------------5---5-----------------------------------------------|
A|-------------------------------------------------------------------------|
E|-------------------------------------------------------------------------|


e|-------------------------------------------------------------------------|
B|------5-------------------5/6---5--------5/6----5------------------------|
G|---7----5----5-4--5----------------5--------------5---7---5--------------|
D|---------------------5---------------------------------------------------|
A|-------------------------------------------------------------------------|
E|-------------------------------------------------------------------------|
Tap to rate this tab
# A B C D E F G H I J K L M N O P Q R S T U V W X Y Z