Song name
# A B C D E F G H I J K L M N O P Q R S T U V W X Y Z

Finley - C Qualcosa Che Non Va tab

Artist: Finley
Song: C'è qualcosa che non va
Album: Adrenalina
Tabs by: -kia-


INTRO:

|-------------------------------------------|
|-------------------------------------------|
|-7-7-5-7---7-7-5-7---7-7-5-7---3-3-3-5-5-5-|
|-7-7-5-7---7-7-5-7---7-7-5-7---3-3-3-5-5-5-|
|-5-5-3-5---5-5-3-5---5-5-3-5---1-1-1-3-3-3-|
|-------------------------------------------|

|-------------------------------------------|
|-------------------------------------------|
|-7-7-5-7---7-7-5-7---7-7-5-7---3-3-3-3-5-5-|
|-7-7-5-7---7-7-5-7---7-7-5-7---3-3-3-3-5-5-|
|-5-5-3-5---5-5-3-5---5-5-3-5---1-1-1-1-3-3-|
|-------------------------------------------|

|----------------------------------------------------|
|----------------------------------------------------|
|-7-7-10-7---7-7-10-7---7-7-10-7---3-3-3-3-3-3---3-5-|
|-7-7-10-7---7-7-10-7---7-7-10-7---3-3-3-3-3-3---3-5-|
|-5-5-8--5---5-5-8--5---5-5-8--5---1-1-1-5-5-5---1-3-|
|----------------------------------------------------|

VERSE:

[Fermati, e chiediti, se quello che..]

|------5-5-5-5----5-5-7-7-|---1-1-1-1----1-1-1-1-|-----5-5-5-5----5-5-5-5-|
|------6-6-6-6----6-6-6-6-|---2-2-2-2----2-2-2-2-|-----6-6-6-6----6-6-6-6-|
|-7-7--7-7-7-7--7-7-7-7-7-|-3-3-3-3-3--3-3-3-3-3-|-7-7-7-7-7-7--7-7-7-7-7-|
|-7-7--7-7-7-7--7-7-7-7-7-|-3-3-3-3-3--3-3-3-3-3-|-7-7-7-7-7-7--7-7-7-7-7-|
|-5-5--5-5-5-5--5-5-5-5-5-|-1-1-1-1-1--1-1-1-1-1-|-5-5-5-5-5-5--5-5-5-5-5-|
|------5-5-5-5----5-5-5-5-|---1-1-1-1----1-1-1-1-|-----5-5-5-5----5-5-5-5-|

PRE CHORUS:

[Hai dato un senso ai giorni tuoi..]

|-----------------------|
|-----------------------|
|-3------7-7-5-3---3----|
|-3--5---7-7-5-3---3--7-|
|-1--5---5-5-3-1---1--7-|
|----3----------------5-|

CHORUS:        
        
[Se.. Non trovi una risposta..]

|------------|------------|-x----x------------|---|
|------------|------------|-x----x------------|---|
|-7--3--5----|-7--3--5----|-x-7--x--3---7-7---|---|
|-7--3--5--7-|-7--3--5--7-|-x-7--x--3---7-7-7-|-7-|
|-5--1--3--7-|-5--1--3--7-|-x-5--x--1---5-5-7-|-7-|
|----------5-|----------5-|-x----x----------5-|-5-|

INTRO:

|-----------------------------|-----------------|
|-----------------------------|-----------------|
|-7-7-5-7---7-7-5-7---7-7-5-7-|-7-7-6-6-5-5-4-4-|
|-7-7-5-7---7-7-5-7---7-7-5-7-|-----------------|
|-5-5-3-5---5-5-3-5---5-5-3-5-|-----------------|
|-----------------------------|-----------------|

VERSE:

[Circondato da gente come te..]

|-----|      
|-----|      
|-7---|      
|-7-7-|      
|-5-7-|      
|---5-| x 8  

[Questa è l'unica occasione..]

|-------------|------5-5-5-5----5-5-7-7-|
|-------------|------6-6-6-6----6-6-6-6-|
|-7----77--77-|-7-7--7-7-7-7--7-7-7-7-7-|
|-7-7--77--77-|-7-7--7-7-7-7--7-7-7-7-7-|
|-5-7--55--55-|-5-5--5-5-5-5--5-5-5-5-5-|
|---5---------|------5-5-5-5----5-5-5-5-|

PRE CHORUS:

[Gioco delle parti... tu da che parte stai..]

|-----------------------|
|-----------------------|
|-3------7-7-5-3---3----|
|-3--5---7-7-5-3---3--7-|
|-1--5---5-5-3-1---1--7-|
|----3----------------5-|

CHORUS:                

[Se.. Non trovi una risposta..]

|------------|------------|-x----x------------|
|------------|------------|-x----x------------|
|-7--3--5----|-7--3--5----|-x-7--x--3---7-7---|
|-7--3--5--7-|-7--3--5--7-|-x-7--x--3---7-7-7-|
|-5--1--3--7-|-5--1--3--7-|-x-5--x--1---5-5-7-|
|----------5-|----------5-|-x----x----------5-|

INTERLUDE:

|------------|
|---7--------|
|---7--------|
|-55-[x6]--5-|
|------------|
|------------|

[Perchè abbiamo poco tempo...]

|------5-5-5-5----5-5-7-7-|---1-1-1-1----1-1-1-1-|-----5-5-5-5----5-5-5-5-|
|------6-6-6-6----6-6-6-6-|---2-2-2-2----2-2-2-2-|-----6-6-6-6----6-6-6-6-|
|-7-7--7-7-7-7--7-7-7-7-7-|-3-3-3-3-3--3-3-3-3-3-|-7-7-7-7-7-7--7-7-7-7-7-|
|-7-7--7-7-7-7--7-7-7-7-7-|-3-3-3-3-3--3-3-3-3-3-|-7-7-7-7-7-7--7-7-7-7-7-|
|-5-5--5-5-5-5--5-5-5-5-5-|-1-1-1-1-1--1-1-1-1-1-|-5-5-5-5-5-5--5-5-5-5-5-|
|------5-5-5-5----5-5-5-5-|---1-1-1-1----1-1-1-1-|-----5-5-5-5----5-5-5-5-|

[Gioca le tue carte...]

|-----------|           |---------|
|-----------|           |---------|
|-3---------|           |-3-------|
|-3-7-5-3-0-|           |-3-7-5-3-|
|-1-7-5-3-0-|           |-1-7-5-3-|
|---5-3-1-0-| x 2       |---5-3-1-| - RALLENTANDO -

CHORUS:

       [Se.. Non trovi una risposta..]

|-----|      |--------|------------|-x----x------------|
|-----|      |--------|------------|-x----x------------|
|-----|      |-7-5----|-7--3--5----|-x-7--x--3---7-7---|
|-7-7-|      |-7-5--7-|-7--3--5--7-|-x-7--x--3---7-7-7-|
|-7-7-|      |-5-3--7-|-5--1--3--7-|-x-5--x--1---5-5-7-|
|-5-5-|      |------5-|----------5-|-x----x----------5-|

[Se.. Non trovi una risposta..]            [C'è qualcosa che non va]

|------------|------------|---------------|---|
|------------|------------|---------------|---|
|-7--3--5----|-7--3--5----|-7---3---7-7---|---|
|-7--3--5--7-|-7--3--5--7-|-7---3---7-7-7-|-7-|
|-5--1--3--7-|-5--1--3--7-|-5---1---5-5-7-|-7-|
|----------5-|----------5-|-------------5-|-5-|

BaCi - kia - se ve serve qlks -> chiara.azzini@hotmail.it - ROCK ON!
Tap to rate this tab
 
# A B C D E F G H I J K L M N O P Q R S T U V W X Y Z