Guitaretab - guitar tabs
Song name
# A B C D E F G H I J K L M N O P Q R S T U V W X Y Z

Finley - Sole Di Settembre tab

Artist: Finley
Song: Sole Di Settembre
Album: Tutto  possibile
Tabs by: -kia-


INTRO:

[Un'altra..][Senza te..]

|----------|----|
|----------|----|
|-------8--|--6-|
|-6--3--8--|--6-|
|-6--3--6--|--4-|
|-4--1-----|----|

[0.18]

|-2-2-2-2--2-2-2-2-|
|-2-2-2-2--2-2-2-2-|
|-2-2-2-2--4-2-4-2-|
|-2-2-2-2--2-2-2-2-|
|------------------|
|------------------| x4

VERSE:

[Come il sole di settembre..]

|------------|
|------------|
|-------8--6-|
|-6--3--8--6-|
|-6--3--6--4-|
|-4--1-------|

CHORUS:

[Vivo solo di te..]

|-----------------|
|----8-----6------|
|-6--8--3--6------|
|-6--6--3--4------|
|-4-----1---------| x2

[1.08 - Con me.. Con me..]

|-2-2-2-2--2-2-2-2-|
|-2-2-2-2--2-2-2-2-|
|-2-2-2-2--4-2-4-2-|
|-2-2-2-2--2-2-2-2-|
|------------------|
|------------------| x4

VERSE:

[Mi hai insegnato ke un sorriso..]

|------------|
|------------|
|-------8--6-|
|-6--3--8--6-|
|-6--3--6--4-|
|-4--1-------|

[Vivo solo di te..]

|-----------------|
|-----------------|
|----8-----6------|
|-6--8--3--6------|
|-6--6--3--4------|
|-4-----1---------| x2

INTERLUDE:

[1.57]
[ Tab from: http://www.guitaretab.com/f/finley/92775.html ]
|-------------------------------|
|-------------------------------|
|-13-[x8]-12-12-12/15-15-15-15--|
|-------------------------------|
|-------------------------------|
|-------------------------------|

[2.02]

|------------------|
|------------------|
|----8--------8----|
|-3--8--6--3--8--6-|
|-3--6--6--3--6--6-|
|-1-----4--1-----4-|

[Io nn so ke mi fai..]

|---------------|    |---------------|
|-------4-------|    |-------1-------|
|-----5---5---5-|    |-----2---2---2-|
|---6-------6---|    |---3-------3---|
|-6-------------|    |-3-------------|
|---------------| x2 |---------------| x2

[Spettri di..]

|------------|
|------------|
|-------8--6-|
|-6--3--8--6-|
|-6--3--6--4-|
|-4--1-------|

CHORUS:

[Vivo solo di te..]

|-----------------|
|-----------------|
|----8-----6------|
|-6--8--3--6------|
|-6--6--3--4------|
|-4-----1---------| x2

[Non posso restare..]

|-----------------|
|-----------------|
|----8-----6------|
|-6--8--3--6------|
|-6--6--3--4------|
|-4-----1---------| x2

END:

|---|
|---|
|---|
|-6-|
|-6-|
|-4-|

Baci - kia - se ve serve qlks -> chiara.azzini@hotmail.it - ROCK ON!
Related for Sole Di Settembre tab