Song name
# A B C D E F G H I J K L M N O P Q R S T U V W X Y Z

Finntroll - Tomhet Och Tystnad Harska tab

----------------------------------------------------------------------------
TOMHET OCH TYSTNAD HARSKA - Finntroll
----------------------------------------------------------------------------
Tabbed by: Zach Rewald
Email:

Tuning:  EADGBE

e|--------------------------------------------------------------------|
B|--------------------------------------------------------------------|
G|-----4-4--4--------7-7--7--------4-4--4-----------------------------|
D|--7---------7---7---------7---7----------7--2---2--4--5--5-5-5-7-8--|
B|--------------------------------------------------------------------|
E|--------------------------------------------------------------------|


e|-------------------------------------------------------------------------|
B|-------------------------------------------------------------------------|
G|--------------------------------------4-4--4--------7-7--7--------4-4--4-|
D|5--5-5-5-4-2--7--7-7-7-5-4--2--2---7---------7---7---------7---7---------|
A|-------------------------------------------------------------------------|
E|-------------------------------------------------------------------------|


e|-------------------------------------------------------------------------|
B|-------------------------------------------------------------------------|
G|-------------------------------------------------------------------------|
D|7--2---2--4--5--5-5-5-7-8--12--12-12-12-9-7--4--4-4-4-6-7--5--5----------|
A|-------------------------------------------------------------------------|
E|-------------------------------------------------------------------------|
Tap to rate this tab
# A B C D E F G H I J K L M N O P Q R S T U V W X Y Z