Song name
# A B C D E F G H I J K L M N O P Q R S T U V W X Y Z

Fiona Apple - Waltz Better Than Fine tab

-------------------------------------------------------------------------------
	      WALTZ (BETTER THAN FINE) (intro) - Fiona Apple
-------------------------------------------------------------------------------

Tuning: Standart

e|-----3--------2--------3--------0--------3--------2--------3--------7------|
B|-----5--------4--------5--------1--------5--------4--------5--------8------|
G|--5-----5--4-----4--5-----5--2-----2--5-----5--4-----4--5-----5--9-----9---|
D|---------------------------------------------------------------------------|
A|---------------------------------------------------------------------------|
E|---------------------------------------------------------------------------|

e|-----5--------5--------7--------7--------4--------4--------4---------------|
B|-----6--------6--------6--------6--------6--------6--------6-----------4---|
G|--7-----7--5-----5--7-----7--5-----5--7-----7--5-----5--3-----3--------4---|
D|-----------------------------------------------------------------6--5------|
A|---------------------------------------------------------------------------|
E|-----------------------------------------------------------------4--3------|

(Chorus: Dm - Dm - F - G - C - C - C Gm ... C - C - C Gm ... )
Tap to rate this tab
 
# A B C D E F G H I J K L M N O P Q R S T U V W X Y Z