Song name
# A B C D E F G H I J K L M N O P Q R S T U V W X Y Z

Fionn Regan - Hunters Map tab

artist: Fionn Regan
song: Hunters Map
album: The End of History
 http://www.fionnregan.com


intro/verse
e|-----------------------------------------------------------------|
b|------------0-----------0-----------0----------------------------|
f#|--------3-----------3-----------3-------------------------------|x
d|------4-----------4-----------4-----------4----------------------|2
a|---------------0-----------4-----------5-----4p0-----------------|
d|---4-------------------------------------------------------------|

e|-----------------------------------------------------------------|
b|------------0-----------0-----------0-----------0----------------|
f#|--------3-----------3-----------3-----------3-------------------|
d|------4-----------4-----------4-----------4----------------------|
a|---------------0-----------------------0--------------0----------|
d|---0-----------------------0-----------------------0-------------|

e|-----------------------------------------------------------------|
b|------0-----------0-----------0-----------0----------------------|
f#|-----------0-----------0-----------0----------------------------|
d|---7-----5-----4-------------------------------------------------|
a|---------------------7-----5-----4-----0-------------------------|
d|-----------------------------------------------------------------|

repeat the whole thing over and over and you have your intro and verse
Tap to rate this tab
# A B C D E F G H I J K L M N O P Q R S T U V W X Y Z