Song name
# A B C D E F G H I J K L M N O P Q R S T U V W X Y Z

Fionn Regan - The Cowshed tab

i think this is close... god bless guitar rig and slow down.
matt

Matt@rushes.co.uk


capo 6th fret

INTRO

e|-----2----------------2---------------------------------------]
b|-----3----------------3---------------------------------------]
g|-----2----------------2---------------------------------------]
d|-----0----------------0------------------------0--------------]
a|-----0----------------0----------------0 h 2------------------]
d|-----0----2----4------0-----2----4----------------------------]

VERSE

"i still see you..."

e|----------2-------------2---------------0-------------0-------]
b|----------3-------------3---------------3-------------3-------]
g|----------2-------------2---------------0-------------0-------]
d|----------------4----------------2-------------0--------------]
a|----0---------------------------------------------------------]
d|--------------------------------------------------------------]

"as a baby..."

e|----------2-------------2---------------0-------------0-------]
b|----------3-------------3---------------3-------------3-------]
g|----------2-------------2---------------0-------------0-------]
d|--------------------------------------------------------------]
a|----------------0----------------2-------------0--------------]
d|----4---------------------------------------------------------]


"i do...."
e|----------0-------------0---------------0-------------0-------]
b|----------3-------------3---------------3-------------3-------]
g|----------0-------------0---------------0-------------0-------]
d|---------------------------------4-------------2--------------]
a|----2-----------0---------------------------------------------]
d|--------------------------------------------------------------]

"climbing onto..."

e|----------2-------------2---------------0-------------0-------]
b|----------3-------------3---------------3-------------3-------]
g|----------2-------------2---------------0-------------0-------]
d|----------------4------------------------------0--------------]
a|----0---------------------------------------------------------]
d|---------------------------------0----------------------------]

"the stage in front of..."

e|----------2-------------2---------------0-------------0-------]
b|----------3-------------3---------------3-------------3-------]
g|----------2-------------2---------------0-------------0-------]
d|--------------------------------------------------------------]
a|----------------0----------------2-------------0--------------]
d|----4---------------------------------------------------------]


"your school...."
e|----------0-------------0---------------0-------------0-------]
b|----------3-------------3---------------3-------------3-------]
g|----------0-------------0---------------0-------------0-------]
d|---------------------------------4-------------2--------------]
a|----2-----------0---------------------------------------------]
d|--------------------------------------------------------------]

"highly strung...."                            
e|------2---------2--------2----3-2-0----2-----2------0-----0---]
b|------2---------2--------2-------------3-----3------3-----3---]
g|------0---------0--------0-------------2-----2------0-----0---]
d|------------------------------------0-------------------------]
a|--2-------2----------5--------------------4-----2------0------]
d|--2-------0----------5----------------------------------------]

"you'd been stung...."                            
e|------2---------2-------2---3-2-0----2-------2------0-----0---]
b|------2---------2-------2------------3-------3------3-----3---]
g|------0---------0-------0------------2-------2------0-----0---]
d|----------------------------------0---------------------------]
a!--2--------2--------5--------------------4-------2-----0------]
d!--2--------0--------5-----------------------------------------]

                           ...the cowshed                           
e|----0------0------0-----0------2-------2-------------]
b|----3------3------3-----3------3-------3-------2-----]
g|----0------0------0-----0------2---------------------]
d|-------4------2------0------0------------------------]
a|----------------------------------0h2------0---------]
d|-0---------------------------------------------------]
Tap to rate this tab
# A B C D E F G H I J K L M N O P Q R S T U V W X Y Z