Song name
# A B C D E F G H I J K L M N O P Q R S T U V W X Y Z

Fionn Regan - Catacombs tab

-------------------------------------------------------------------------------
			     CATACOMBS - Fionn Regan
-------------------------------------------------------------------------------
Tabbed by: jacob
Email: spotsandstripes@hotmail.co.uk

Tuning: Standard (EADGBe)
Capo on 5th Fret

          This is the acoustic guitar that plays throughout the verses

e|---------------------------------------------------------------------0-----|
B|-----2-------------2---------------2---------------0-----------------------|
G|-------------2--------------2----------------2---------------4-------------|
D|-----2----------2--------------2----------------2----------------4---------|
A|--0------------------------------------------------------2-----------------|
E|---------4--------------2---------------0----------------------------------|


e|---------------------------------------------------------------------------|
B|-----0---------------0----------------0------------------------------------|
G|------------4---------------4------------------4---------------------------|
D|---------4---------------4-----------------4-------------------------------|
A|-0-------------------------------------------------------------------------|
E|-----------------4---------------2-----------------------------------------|

Just keep going between those two

************************************

| /   slide up
| \   slide down
| h   hammer-on
| p   pull-off
| ~   vibrato
| +   harmonic
| x   Mute note
| b   Bend
| pb  Pre-bend
| br  Bend release
| pbr Pre-bend release
| brb Bend release bend

************************************
Tap to rate this tab
 
# A B C D E F G H I J K L M N O P Q R S T U V W X Y Z