Song name
# A B C D E F G H I J K L M N O P Q R S T U V W X Y Z

Fionn Regan - Sow Mare Bitch Vixen tab

-------------------------------------------------------------------------------
			    Sow Mare Bitch Vixen - Fionn Regan
-------------------------------------------------------------------------------
Tabbed by: g2thecracker


Tuning: Standard

Intro
e|-------------------------------------------------------------------------------|
B|---------------1--------1------1-----------------------------------------------|
G|----------0--------0-------0---------------------------------------------------|  x4
D|------------2----2---3---2---0-------------------------------------------------|
A|--------3----------------------------------------------------------------------|
E|-------------------------------------------------------------------------------|


Bridge and Chorus

e|-------------------------------------------------------------------------------|
B|---------------1-------1-------1----1---1---1---1---1--1---1---1--1--1-1-1-----|
G|----------0--------0-------0-----3---3----3---2--2---2---0--0---0--------------|
D|------------2----2---3---2---0----------------------------------------3-3-3----|
A|--------3----------------------------------------------------------------------|
E|-------------------------------------------------------------------------------|

e|-------------------------------------------------------------------------------|
B|---------------1--------1------1-----------------------------------------------|
G|----------0--------0-------0---------------------------------------------------|  x2
D|------------2----2---3---2---0-------------------------------------------------|
A|--------3----------------------------------------------------------------------|
E|-------------------------------------------------------------------------------|


e|---------------------------------------------------------------------------------|
B|--------------1---------1-------1---------1--------------------------------------|
G|----------0-----0---0-----0--0---0----0----0-------------------------------------|
D|------------2---------2-------2---------2----------------------------------------|
A|------------------0-----------------0--------------------------------------------|
E|--------3-------------------3----------------------------------------------------|

e|-------------------------------------------------------------------------------|
B|---------------1--------1------1-----------------------------------------------|
G|----------0--------0-------0---------------------------------------------------|  x2
D|------------2----2---3---2---0-------------------------------------------------|
A|--------3----------------------------------------------------------------------|
E|-------------------------------------------------------------------------------|

e|---------------------------------------------------------------------------------|
B|--------------1---------1-------1---------1--------------------------------------|
G|----------0-----0---0-----0--0---0----0----0-------------------------------------|
D|------------2---------2-------2---------2----------------------------------------|
A|------------------0-----------------0--------------------------------------------|
E|--------3-------------------3----------------------------------------------------|
Repeat bridge and chorus continually


Outro

e|-----------------------------------------0-------------------------------------|
B|---------------1--------1------1---------1-------------------------------------|
G|----------0--------0-------0------------0--------------------------------------|
D|------------2----2---3---2---0----------2--------------------------------------|
A|--------3-------------------------------3--------------------------------------|
E|----------------------------------------0--------------------------------------|
Tap to rate this tab
# A B C D E F G H I J K L M N O P Q R S T U V W X Y Z