Song name
# A B C D E F G H I J K L M N O P Q R S T U V W X Y Z

Fionn Regan - Dogwood Blossom tab

Capo on 2nd

Intro

E--------------------------------------------------------------------------------------------------|
B------------------------------------3------------3-------------3------3----------------------3----|
G-------O-------O--------O---------O--------O---------O-------O------O-------O----O-------O-------O|
D-----O--------O--------O-----Oh2---------2---------2-----Oh2------O-------2----O-------O-------O--|
A-----------Oh2------Oh3----------------3------O-------------------------3----2--------------------|
E-Oh3---------------------------------------------------------------------------------3-----3------|

Verse

E--------------------------------------------------------------------------------------------------|
B----------------3---------------3--------3-----------3----3----------------------3----------------|
G---O---O---O-------O---O------O------O-------O-----O----O-------O----O-------O-------O------------|
D--2---O---O-------O---2---Oh2-------2------2-----2----O-------2----O-------O-------O--------------|
A-----O---2----2------3------------3----3--------------------3----2--------------------------------|
E-3-----------------------------------------------------------------------3-----3------------------|

Chorus

E-------------------------------------------------------------------------(3)----------------------|
B--------3-----------O--------------O------------1------------3-----0h2--------2------0-------0----|
G---O-------O----O-------O-------O------O----O------O----O-------O---------0-------0------0-------0|
D-O-------O----2-------2-------2------2-----2------2----O-------O--------2-------2-------2------2--|
A------------------2--------O------2-------3---3---------------------------------------------------|
E2----2------O-----------------------------------------3----3-------3--------3--------3-----3------|

Played in chorus third time around after E minor

E---------------------------------------------------------|
B-------------1----------------------1--------------------|
G---------O------O------O---------O------O------O---------|
D-------2------2------O---------2------2------O-----------|
A-O-2-3-----3-------------O-2-3-----3---------------------|
E-------------------3-----------------------3-------------|

Played toward end of chorus after G chord

E----------------------------------|
B-------------O--------------------|
G---------O-------O----------------|
D-------2-------2------------------|
A-----------2----------------------|
E-3-2-O----------------------------|
Tap to rate this tab
# A B C D E F G H I J K L M N O P Q R S T U V W X Y Z