Song name
# A B C D E F G H I J K L M N O P Q R S T U V W X Y Z

Fionn Regan - Woodberry Cemetery tab

Fionn Regan - Woodberry Cemetery



standard tuning  capo 2

   D      DM7   G/D    G5/D  Bm7/D
|--2-----2-----3-----3-----5----|
|--3-----2-----0-----3-----3----|
|--2-----2-----0-----0-----4----|
|--0-----0-----0-----0-----0----|
|-------------------------------|
|-------------------------------|


Intro
    G     A      Bm   C#m
||--------------------|
||--------------------|
||--4----6----7----9--|
||--5----7----9----11-|
||-----------------11-|
||--3----5----7----9--|



D              DM7                 G/D             G5/D  
Bring back the Staircase in your childhood home

D                   DM7                  G/D     G5/D
Bring back the wind through the attic blowing  

Bm           A     G
Woodberry cemetery
               Bm          A     G
close your eyes and count to three

G              A
Woodberry cemetery


D      DM7       G/D               G5/D  Bm7/D
Bring back Grandmothers eyes

D          DM7       G/D    G5/D
Bring back the gorse fires      

Bm           A     G
Woodberry cemetery

               Bm          A     G
Close your eyes and you will see

G              A
Woodberry cemetery


Ending

|-----------------0--|-----------------0--|
|--7---------7-------|--7---------7-------|
|--------------------|--------------------|
|-------7------------|-------7------------|
|--5-----------------|--0-----------------|
|--------------------|--------------------|

|-----------------0--|--------------------|
|--3---------3-------|--2----3----5----8--|
|--------------------|--2----2----4----7--|
|-------4------------|--2----4----5----9--|
|--2-----------------|--0-----------------|
|--------------------|--------------------|

|--2-----------------||
|--3-----------------||
|--2-----------------||
|--0-----------------||
|--------------------||
|--------------------||
Tap to rate this tab
# A B C D E F G H I J K L M N O P Q R S T U V W X Y Z