Song name
# A B C D E F G H I J K L M N O P Q R S T U V W X Y Z

Fionn Regan - St Anthonys Fire tab

-------------------------------------------------------------------------------
			     st anthony's fire - fionn regan
-------------------------------------------------------------------------------
Tabbed by: JLEE
E-mail: hi@jlee.ca

Tuning: Standard

e|---------------------------------------------------------------------------|
B|---------------------------------------------------------------------------|
G|-------5--------7---------9----------11------------------------------------|
D|---------------------------------------------------------------------------|
A|----7-----7--9-----9--10-----10--12------12--------------------------------|
E|---------------------------------------------------------------------------|

e|---------------------------------------------------------------------------|
B|---------------------------------------------------------------------------|
G|--------9--9------7h9p7---------5--5----4--5--7----------------------------|
D|--------9--9------7------7------5--5---4-----------------------------------| x2
A|----10---------9-------------7--------5------------------------------------|
E|---------------------------------------------------------------------------|

e|---------------------------------------------------------------------------------------------|
B|-------------------------------------------------------------------------------------10--8--7|
G|-----9--9-----7--7-----5--5-----4--4---------7-----5--5-----4--4--------4---------9--9-------|
D|-----9--9-----7--7-----5--5-----4--4------9--------5--5-----4--4-----5---------9-----9-------| x2
A|-10--------9--------7--------5--------10--------7--------5--------3--------10----------------|
E|---------------------------------------------------------------------------------------------|
             I know you're lonely,         I watched you walk like a ghost out into the street
             You left sparks in the night, Your movements left traces, Dispersed through 
the prism of light

e|----------------------------||
B|----------------------------||
G|----------------------------||
D|----------5--------4--------|| x4
A|-------7--------5-----------||
E|----8--------7--------------||
      Saint Anthony's Fire,
      Chased down the village,

e|---------------------------------------------------------------------------|
B|---------------------------------------------------------------------------|
G|----------7-----------------------4--5-------------------------------------|
D|-------5--------5--0-----4--5--7-------------------------------------------|
A|----7--------5--------3----------------------------------------------------|
E|---------------------------------------------------------------------------|
Like a swarm   of       bees


Your diaries are bound,
With Chinese silk,
And wrapped in red ribbons,
You float outside my window held up,
By the pull of the moon on the tide,

Saint Anthony's Fire,
Chased from your house by,
A poltergeist.


************************************

| /   slide up
| \   slide down
| h   hammer-on
| p   pull-off
| ~   vibrato
| +   harmonic
| x   Mute note
| b   Bend
| pb  Pre-bend
| br  Bend release
| pbr Pre-bend release
| brb Bend release bend

************************************
Tap to rate this tab
# A B C D E F G H I J K L M N O P Q R S T U V W X Y Z