Song name
# A B C D E F G H I J K L M N O P Q R S T U V W X Y Z

Firdaus - Ku Berlari tab

Artist : Firdaus
Album : ????
Title : Ku Berlari
Tabbed by: Gmaster MB

-----------------|----------------|
-----------------|----------------|
-7-6-4-4-4-4-4-4-|-9-7-6-7-6---6--|
-x-x-x-x-x-x-x-x-|-x-x-x-x-x-7-x--|
-5-4-2-2-2-2-2-2-|-7-5-4-5-4-x-4--|
-----------------|-----------5----|

----12----12-----14----14-----10----10-9-10--------------|
-10----10-----10----10-----10----10---------12-10-12-12--|
---------------------------------------------------------|
---------------------------------------------------------|
---------------------------------------------------------|
---------------------------------------------------------|

--------9-10-12-10-9-\\---------|
--10-12-------------------------|
------------------------7-6-4~--|
------------------------x-x-x---|
------------------------5-4-2~--|
--------------------------------|

http://www.marhabandiastro.com/firdaus/main.html
Tap to rate this tab
 
# A B C D E F G H I J K L M N O P Q R S T U V W X Y Z