Guitaretab - guitar tabs
Song name
# A B C D E F G H I J K L M N O P Q R S T U V W X Y Z

Fire By Night - I Am Not For Me tab

-------------------------------------------------------------------------------
			     I Am Not For Me  Fire By Night
-------------------------------------------------------------------------------
Tabbed by: biker521

Tuning: Standard

The chords are pretty simple, the intro/verse riff is pretty much the whole song. 
There are some variations in the strum pattern, but they can be easily figured out. 
Please comment and rate!



Intro/Verse (x12)
      B                            A                         repeat
e|----7----7-x-x---7-7-x-x-x-x----5---5-x-x---5-5--x-x-x-x---------|
B|----7----7-x-x---7-7-x-x-x-x----5---5-x-x---5-5--x-x-x-x---------|
G|----8----8-x-x---8-8-x-x-x-x----6---6-x-x---6-6--x-x-x-x---------|
D|----9----9-x-x---9-9--x-x-x-x----7---7-x-x---7-7--x-x-x-x---------|
A|----9----9-x-x---9-9--x-x-x-x----7---7-x-x---7-7--x-x-x-x---------|
E|----7----7-x-x---7-7--x-x-x-x----5---5-x-x---5-5--x-x-x-x---------|
      v    v ^ v   ^ ^  v ^ v ^    v   v ^ v   ^ ^
[ Tab from: http://www.guitaretab.com/f/fire-by-night/189516.html ]
Prechorus
     A
e|---5---x-x-x--5-5---x-x-x--5-5--x-x-x--5-5---------------------------------|
B|---5---x-x-x--5-5---x-x-x--5-5--x-x-x--5-5---------------------------------|
G|---6---x-x-x--6-6---x-x-x--6-6--x-x-x--6-6---------------------------------|
D|---7---x-x-x--7-7---x-x-x--7-7--x-x-x--7-7---------------------------------|
A|---7---x-x-x--7-7---x-x-x--7-7--x-x-x--7-7---------------------------------|
E|---5---x-x-x--5-5---x-x-x--5-5--x-x-x--5-5---------------------------------|
     v   v ^ v  ^ ^   v ^ v  ^ ^  v ^ v  ^ ^



Chorus  

      B                            A           E           repeat(x4)
e|----7----7-x-x---7-7-x-x-x-x----5---5-x-x---0-0--x-x-x-x---------|
B|----7----7-x-x---7-7-x-x-x-x----5---5-x-x---0-0--x-x-x-x---------|
G|----8----8-x-x---8-8-x-x-x-x----6---6-x-x---1-1--x-x-x-x---------|
D|----9----9-x-x---9-9--x-x-x-x----7---7-x-x---2-2--x-x-x-x---------|
A|----9----9-x-x---9-9--x-x-x-x----7---7-x-x---2-2--x-x-x-x---------|
E|----7----7-x-x---7-7--x-x-x-x----5---5-x-x---0-0--x-x-x-x---------|
      v    v ^ v   ^ ^  v ^ v ^    v   v ^ v   ^ ^


Fill (over chorus, comes up a few times )

e|-4---4-4-------2h4-------2h4-------2h4---4-4----------------------|
B|-4---4-4---0h4-------0h4-------0h4-------4-4----------------------|
G|------------------------------------------------------------------|
D|------------------------------------------------------------------|
A|------------------------------------------------------------------|
E|------------------------------------------------------------------|

Breakdown

B A B A x4

And that's really all there is too it. and the solo, which i cant get right.


| /  slide up
| \  slide down
| h  hammer-on
| p  pull-off
| ~  vibrato
| +  harmonic
| x  Mute note
===============================================================================
Related for I Am Not For Me tab