Song name
# A B C D E F G H I J K L M N O P Q R S T U V W X Y Z

Fire In The Attic - Decision Action tab

----------------------------------------------------------------------------
			 Decision & Action - Fire in the Attic
----------------------------------------------------------------------------
Tabbed by: Max Guhlke
Email: Max.Guhlke@web.de

Tuning: E A D G B E



# = PLAY A FEW TIMES

INTRO 2x 
E|--0---|--------------|
B|--2-3-|-12-----12--13|
G|--2-x-|---12-----12--|
D|--0-0-|-----10-------|
A|--3-3-|--------------|
E|--3-3-|--------------|

INTRO 2 2x                                                        # # # #
E|--------------------------------------------------------------|---------|
B|---------3-------------3---------------3----------------------|---------|
G|-------------------------------------------------445----223---|-5-7-9-12|
D|----545---45--5---545---45--5-22-454-22-45-222-55----55----555|-5-7-9-12|
A|--33---33---33--55---55---55----------------------------------|-3-5-7-10|
E|--------------------------------------------------------------|---------|
pm  ..   ..   ..  ..   ..   ..  ..     ..    ... ..    ..    ...

VERSE 2x 
E|--------------------|-------------------------------------|
B|--------------------|-------------------------------------|
G|----0--0-0-0-0-0-0-0|--0-0-0-0-0-0-0-0-0-0-0-0--0--0--0--0|
D|--------------------|-------------------------------------|
A|--10-10-9-9-7-7-5-5-|-3-3-3-3-5-5-5-5-7-7-7-7-10-10-10-10-|
E|--------------------|-------------------------------------|
    
VERSE 2
    # # # #                 #  #  #   # #                 #
E|----------------------------------|-----------------------|
B|----------------------------------|-----------------------|
G|--5-7-9-1112-9999-12-9999-12-14-16|-5-7-12------12--------|
D|--5-7-9-11-x-9999--x-9999--x--x--x|-5-7--x-2222--x-2222-5-|
A|--3-5-7-9-10-7777-10-7777-10-12-14|-3-5-10-2222-10-2222-5-|
E|----------------------------------|--------0000----0000-3-|
pm  . . . .                           . .

VERSE 3
    #  #  #  #                    #  #   # #                 #
E|-------------------------------------|-----------------------|
B|-------------------------------------|-----------------------|
G|--12-14-12-11-12--9999--12-9999-12-14|-5-7-12------12--------|
D|---x--x--x--x--x--9999---x-9999--x--x|-5-7--x-2222--x-2222-5-|
A|--10-12-10--9-10--7777--10-7777-10-12|-3-5-10-2222-10-2222-5-|
E|-------------------------------------|--------0000----0000-3-|

PRECHORUS
    #  #  #   #  #  #  #  2x
E|----------------------|-----------------|
B|----------------------|-----------------|
G|--14-16-14--9-11-12-14|-222-444-555-7777|
D|--14-16-14--9-11-12-14|-222-444-555-7777|
A|--12-14-12--7-9--10-12|-000-222-333-5555|
E|----------------------|-----------------|

CHORUS 2x
   #  #  #  #  #  # # # # #
E|------------------|--------|
B|------------------|--------|
G|--12-9--9-11-12-14|--9-7-5-|
D|--12-9--9-11-12-14|5-9-7-5-|
A|--10-7-/7-9--10-12|5-7-5-3-|
E|------------------|3-------|

POSTCHORUS
E|-----------------------------|
B|---------3-------------3-----|
G|-----------------------------|
D|-----------------------------|
A|----545---45--5---545---45--5|
E|--33---33---33--55---55---55-|

PLAY :
VERSE
VERSE 2
VERSE 3
PRECHORUS
CHORUS

OUTRO
E|---------------------|------------|
B|---------------------|------------|
G|--12121212-14-121212-|----777-555-|
D|---x-x-x-x--x--x-x-x-|222-777-555-|
A|--10101010-10-101010-|222-555-333-|
E|---------------------|000---------|

END
E|-----|
B|-----|
G|-----|
D|--222|
A|--222|
E|--000|
pm  ...
Tap to rate this tab
# A B C D E F G H I J K L M N O P Q R S T U V W X Y Z