Song name
# A B C D E F G H I J K L M N O P Q R S T U V W X Y Z

Fire Throne - Nadchodzi Lew tab

Riff 1:

E1-----------------------------------------------------------------------|
H2-----------------------------------------------------------------------|
G3-----------------------------------------------------------------------|
D4--5-5---5-5-5---5-5-5---5-5-6-6-6-----5-5---5-5-5---5-5-5---5-5-8-8-8--|
A5--5-5---5-5-5---5-5-5---5-5-6-6-6-----5-5---5-5-5---5-5-5---5-5-8-8-8--|
E6--3-3---3-3-3---3-3-3---3-3-4-4-4-----3-3---3-3-3---3-3-3---3-3-6-6-6--|

Riff 2:

E1-----------------|
H2-----------------|
G3-----------------|
D4--5-6---5-8-8-8--|
A5--5-6---5-8-8-8--|
E6--3-4---3-6-6-6--|

end riff 2:

E1----
H2----
G3----
D4-5--
A5-5--
E6-3--

http://profile.myspace.com/index.cfm?fuseaction=user.viewprofile&friendid=28821840
Tap to rate this tab
# A B C D E F G H I J K L M N O P Q R S T U V W X Y Z