Song name
# A B C D E F G H I J K L M N O P Q R S T U V W X Y Z

Firearms For Children - Prepare To Get Wet And Messy tab

this is most of the song,
im not sure about the solo tho....

this is the main riff
---------------------------------------------------------------------------|
---------------------------------------------------------------------------|
---------------------------------------------------------------------------|
---------7-7p0-5p0-3p0-2-3-2h3p2-5-3p0-2p0-3p0-5p0-3p0-2h3p2---------------|
---------5-----------------------3-----------------------------------------|
---------------------------------------------------------------------------|


this is the riff after the intro
--------------------------------|------------------------------------------|
---------------8----8-----------|---------11----11-------------------------|
---------7-----8----8-----------|----7----10----10-------------------------|
---------5--555--555------------|----5-555---555---------------------------|
--------------------------------|------------------------------------------|
--------------------------------|------------------------------------------|


this is the slow part
---------------------------------------------------------------------------|
---------------------------------------------------------------------------|
----------------------0--------------------3-------------------------------|
----7--5--3--2-3-2--------7--5--3--2-3-2-----------------------------------|
--5-----------------3---5----------------3---------------------------------|
---------------------------------------------------------------------------|

this is there myspace  http://www.myspace.com/firearmsct
Tap to rate this tab
 
# A B C D E F G H I J K L M N O P Q R S T U V W X Y Z