Song name
# A B C D E F G H I J K L M N O P Q R S T U V W X Y Z

Fireball Ministry - Sundown tab

INTRO
e--------------------------------------------------------------| On the last time
b--------------------------------------------------------------| through the intro
g--------------------------------------------------------------| don't play the
d--------------------------------------------------------- 4-2-| part
a----4---2---4---2--7p6h7p6------4---2----5-4-2----------- 4-2-|
D-00---0---0---0--------------00---0---00-5-4-2----------------|

verse
e---------------------------------------------------------|
b---------------------------------------------------------|
g---------------------------------------------------------|
d---------------------------------------------------------|
a--0-0-0--0--0---55555-44-2-------------------------------|
D--0-0-0--0--0---55555-44-2-------------------------------|

Chorus
e---------------------------------------------------------|
b---------------------------------------------------------|
g---------------------------------------------------------|
d--666666-444444-222222-444444----------------------------|
a--444444-222222-000000-222222----------------------------|
D---------------------------------------------------------|

Repeat everything

After chorus two/Ending
e---------------------------------------------------------|
b---------------------------------------------------------|
g---------------------------------------------------------|
d---6-6-6----------4-6br----------------------------------|
a---4-4-4--4-6-4-6----------------------------------------|
D---------------------------------------------------------|

Chorus starts at the 12th fret on the g string and improvises from there
Tap to rate this tab
# A B C D E F G H I J K L M N O P Q R S T U V W X Y Z