Song name
# A B C D E F G H I J K L M N O P Q R S T U V W X Y Z

Fireball Ministry - King tab

Fireball Ministry : King

Unfortunately without the solo.

Tuning

E -> C#
A -> G#
D -> C#
G -> F#
B -> A#
e -> D#


        INTRO : 4x
|------|---------------------------------------------------|
|------|---------------------------------------------------|
|------|---------------------------------------------------|
|------|---------------------------------------------------|
|------|------7--7--5--------------------------------------|
|-/12--|---0-------------3--0--3--5--3--5^-3--0--0---------|

The first 4 times, until Bass and second guitar joins is only played by the drums and 
guitar. At the end of the 4th time Bass and second guitar join playing :

|--------------------------|
|--------------------------|
|--------------------------|
|--------------------------|
|--3--0--3--5--3--5--3--0--|
|--3--0--3--5--3--5--3--0--|

Main Part:

|----------------------------------------------|
|----------------------------------------------|
|-o-------------------------------------------o|
|-o---(5)(5)(3)-------------------------------o|
|------7--7--5---------------------------------|
|---0-------------3--0--3--5--3--5^--3--0------|

Both guitars play the same 2 times.
The second 2 times, one guitar plays 7--7--5-|
and the second guitar plays 5--5--3----------|

Vocal Part:
                   Played at 1 and 3
|--------------------------------|----------------|
|--------------------------------|----------------|
|------------5-----------------o-|--------------o-|
|--7-7-7--7--3--5-5------------o-|--------------o-|
|--5-5-5--5-----3-3----3/5--5----|--3-------------|
|----------------------3/5--5----|--1-------------|
                                  Played at 2 and 4

Bridge:

           3 times                    4th time 16x
|-----------------------------------|----------------|
|-----------------------------------|----------------|
|---------------------------------o-|----------------|
|---------------------------------o-|----------------|
|---5-------------------------------|oooooooooooooooo|
|---------6----------5------3-------|oooooooooooooooo|

Refrain:

|----------------------------------------|
|----------------------------------------|
|--------------------------------------o-|
|---7-777775-555555--------------------o-|
|---5-555555-3333330--3--333335-556-5-3--|
|---------------------3--333335-556-5-3--|

The part where the solo is played is exactly played like the Bridge.
Only this time it is played 7 times and the 8th time
is the fill in with the open strings.

If you take a look at the video, this is nearly the exact way ...
or at least it fits best compared to what the guitars play.

Still working on the solo thou ..

Cheers and have fun ...

Tappster
Tap to rate this tab
# A B C D E F G H I J K L M N O P Q R S T U V W X Y Z