Song name
# A B C D E F G H I J K L M N O P Q R S T U V W X Y Z

Fireball Ministry - King tab

Fireball Ministy
King
Album: The second great awakening

1/2 step down and low E is full step down (drop D style in 1/2 step down tuning)
Sorry don't know what that tuning is called.

This tab should be pretty on point, no solo here sorry. Listen to song for rhythm.


**INTRO**
e----------------------------------------------------------------------------------|
b----------------------------------------------------------------------------------|
g----------------------------------------------------------------------------------|
d----------------------------------------------------------------------------5-----|
a---5-7-7-5--------------------------7-7-5------------------------7-7-5------5-----|
E--------------0-3-5-5-3-5-3-0-0-------------0-3-5-5-3-5-3-0-0-------------0-5-----|

**CHORUS**

e------------------------------------------------------------------------------------|
b------------------------------------------------------------------------------------|
g------7777--10-55-------------------------------------------------------------------|
d------7777--10-55--3-\5-5-5---------------------------------------------------------|
a------5555--8--33--3-\5-5-5---------------------------------------------------------|
E-------------------3-\5-5-5---------------------------------------------------------|

Intro again
then Chorus


then:

e--------------------------|
b--------------------------|
g------5-------------------|
d---7--5-5-3---x4----0...--|
a---7----5-3---------0...--|(.=palm mute)
E---5----5-3---------0...--|


e----------------------------------------------------------|
b----------------------------------------------------------|
g---7-7-7-7-7-------5--------------------------------------|
d---7-7-7-7-7-------5-----3333333-----555653---------------|
a---5-5-5-5-5-------3-----3333333-----555653---------------|
E-------------------------3333333-----555653---------------|

Intro again
etc...


--MY FIRST TAB PLEASE RATE !!
Tap to rate this tab
# A B C D E F G H I J K L M N O P Q R S T U V W X Y Z