Song name
# A B C D E F G H I J K L M N O P Q R S T U V W X Y Z

Fireball Ministry - Second Greatest Coming tab

THE SECOND GREATEST COMING

Tuned 1/2 step down

                                                      4x
|---------------------------------------------------------|
|---------------------------------------------------------|
|--10--9--7--9--10975---3--2--6--2----------------------o-|
|------------------------------------6------------------o-|
|------------------------------------4--------------------|
|---------------------------------------------------------|


After 2nd repeat    (same tempo & rhythm)
|--12^-11~9--11-121197--4--3--7--3---8~~~~----------------|
|---------------------------------------------------------|
|-------------------------------------------------------o-|
|-------------------------------------------------------o-|
|---------------------------------------------------------|
|---------------------------------------------------------|
Tap to rate this tab
 
# A B C D E F G H I J K L M N O P Q R S T U V W X Y Z