Song name
# A B C D E F G H I J K L M N O P Q R S T U V W X Y Z

Fireball Ministry - Rollin On tab

Help us improve GuitareTab! Take a short survey!
============================================================================
                        Black Stone Cherry - Rollin' On
============================================================================

Tuning: Drop Db
Tabbed by: Inferno11
Email: condor_64@hotmail.com


Intro:
Eb------------------------------------------------------|
Bb--7-------------------------/7------------------------|
Gb-----9--6-----------------------9---6-----------------|
Db-----------9---7h9--7~-----------------9---7/9--9~----|
Ab------------------------------------------------------|
Db------------------------------------------------------|

Verse: (X2)
Eb--------------------------------------------------------------------------|
Bb--------------------------------------------------------------------------|
Gb--------------------------------------------------------------------------|
Db--------------------------------------------------------------------------|
Ab--12\--7-7-7-7-7-7-7-7--5-5-5-5-5-5-5-5--5-5-5-5-5-5-5-5-5-5-5-5-5-5-5-5--|
Db--12\--7-7-7-7-7-7-7-7--5-5-5-5-5-5-5-5--0-0-0-0-0-0-0-0-0-0-0-0-0-0-0-0--|
       PM===============    =============    =============================

Verse fill: (im not sure if this is right, just the way I play it)
Eb--------------------------------------------------------------------------|
Bb--------------------------------------------------------------------------|
Gb--------------------------------------------------------------------------|
Db--------------------------------------------------------------------------|
Ab----------------------------------------x-10-10p9--x-10-10p9---7/9-7/9\5--|
Db--------------------------------------------------------------------------|

Verse: (con't)
Eb--------------------------------------------------------------------------|
Bb--------------------------------------------------------------------------|
Gb--------------------------------------------------------------------------|
Db-------7-7-7-7-7-7-7-7--5-5-5-5-5-5-5-5--7-7-7-7-7-7-7-7-7-7-7-7-7-7-7-7--|
Ab--12\--7-7-7-7-7-7-7-7--5-5-5-5-5-5-5-5--5-5-5-5-5-5-5-5-5-5-5-5-5-5-5-5--|
Db--12\--7-7-7-7-7-7-7-7--5-5-5-5-5-5-5-5--0-0-0-0-0-0-0-0-0-0-0-0-0-0-0-0--|

Chorus:
Eb-----------------------------------------------|
Bb-----------------------------------------------|
Gb--9-9--99---X4-4--44---X6-6--66--6/7--6/7\6\4--|
Db--7-7--77---X2-2--22---X4-4--44--X/X--X/X\X\X--|
Ab--7-7--77---X2-2--22---X4-4--44--4/5--4/5\4\2--|
Db--7-7--77---X2-2--22---X4-4--44----------------|

Eb---------------------------------------------------|
Bb---------------------------------------------------|
Gb--9-9--99---4-4--44---7-77-7/9-99-9/111111/14-14~--|
Db--7-7--77---2-2--22---x-xx-x-x-xx-x-x-xx-x-x--x----|
Ab--7-7--77---2-2--22---5-55-5/7-77-7/9-99-9/12-12~--|
Db--7-7--77---2-2--22---0----------------------------|


Play intro again but at the end play this instead:
Eb------------------------------------------------|
Bb---/7-------------------------------------------|
Gb-------9---6--------------------6-6h7-6---------|
Db--------------9--7/9--7~---7h9-----------9-7~---|
Ab------------------------------------------------|
Db------------------------------------------------|

Play verse the same as the first time

Also the chorus the same as well

Solo: (borrowed this part from the other tab so I'll take no credit for this, Ill work 
fixing any mistakes
when I play it I just improvise)
Eb-----------------------------------------|
Bb-----------------------------------------|
Gb--4b--4pb--4pb--4pb--4pb--4pb--4pb--4pb--|
Db-----------------------------------------|
Ab-----------------------------------------|
Db-----------------------------------------|

Eb----------------------------------------------------|
Bb----------------------------------------------------|
Gb--4pbr-----2h-4p-2----4b-----2-4-2---2--------------|
Db-----------------------------------5---5-2---2------|
Ab-------------------------------------------5---3-0--|
Db----------------------------------------------------|


Eb--------------------------------------|
Bb--------------------------------------|
Gb------------------5---5h-7-5h-7p-5----|
Db-------------5h-7---5-----------------|
Ab--0h-3h-5S-7--------------------------|
Db--------------------------------------|


Eb--17p-15---------------17p-15---------------17p-15--------|
Bb---------17p-15---------------17p-15---------------17p-15-|
Gb----------------17p-14---------------17p-14---------------|
Db----------------------------------------------------------|
Ab----------------------------------------------------------|
Db----------------------------------------------------------|


Eb--------------------------------------------|
Bb--------------15----------------------------|
Gb--17p-14-17b-----17-14----14----------------|
Db-----------------------17----17-14----------|
Ab-----------------------------------15-12----|
Db--------------------------------------------|


Eb--------------------------------------------------|
Bb--------------------------------------------------|
Gb--------------------------14----------14----14-17-|
Db-----------14-17----14-17----17-14-17----14-------|
Ab--12-15-17-------17-------------------------------|
Db--------------------------------------------------|

Play the intro again with the different fill at the end

Chorus:
Eb-----------------------------------------------|
Bb-----------------------------------------------|
Gb--9-9--99---X4-4--44---X6-6--66--6/7--6/7\6\4--|
Db--7-7--77---X2-2--22---X4-4--44--X/X--X/X\X\X--|
Ab--7-7--77---X2-2--22---X4-4--44--4/5--4/5\4\2--|
Db--7-7--77---X2-2--22---X4-4--44----------------|

Eb----------------------|
Bb----------------------|
Gb--9-9--99---x4-4--44--|
Db--7-7--77---x2-2--22--|
Ab--7-7--77---x2-2--22--|
Db--7-7--77---x2-2--22--|


End Solo: (I borrowed this part to and i'll correct any mistakes I find, improvising's 
fun anyway)
Eb----------------5-----5-------5-----5-----5-----5--------5--|
Bb------------------8-5---8-5-----8-5---8-5---8-5---8-5-8-----|
Gb---------7b~------------------------------------------------|
Db------------------------------------------------------------|
Ab------------------------------------------------------------|
Db------------------------------------------------------------|


Eb--5--5--5------5--5--5--------5-----5-----5-----5-----5-----5-|
Bb-----------8-5----------8-5-----8-5---8-5---8-5---8-5---8-5---|
Gb--------------------------------------------------------------|
Db--------------------------------------------------------------|
Ab--------------------------------------------------------------|
Db--------------------------------------------------------------|


Eb------5-----5-----5-----5-------------------------------------------|
Bb--8-5---8-5---8-5---8-5---8-5-------15b-----------15pb--15pb--15pb--|
Gb--------------------------------------------------------------------|
Db--------------------------------------------------------------------|
Ab--------------------------------------------------------------------|
Db--------------------------------------------------------------------|


Eb------------------------------------------------------------------------|
Bb15pb--15pb--15pb--15pb--15pb--15pb--15pb--15pb--15pb--15pb--15pb--15pb--|
Gb------------------------------------------------------------------------|
Db------------------------------------------------------------------------|
Ab------------------------------------------------------------------------|
Db------------------------------------------------------------------------|


Eb-------------------------------------------------17-------17-------|
Bb--15pbr----13-15-----------------------20b----------20-17----20-17-|
Gb-----------------14---------\--------------------------------------|
Db-------------------------------------------------------------------|
Ab-------------------------------------------------------------------|
Db-------------------------------------------------------------------|

(do a tremolo flutter for this)
Eb--17-------17-------17-------17-------17---------|
Bb-----20-17----20-17----20-17----20-17----20-17---|
Gb-------------------------------------------------|
Db-------------------------------------------------|
Ab-------------------------------------------------|
Db-------------------------------------------------|


Eb-------------------------------------------------------------------------|
Bb-------------------------------------------------------------------------|
Gb19br-----17--------17----------------------------------------------------|
Db-------------19-17----19-17----17------------17-19-----------------------|
Ab----------------------------19----19-17-19---------17br-----15~----------|
Db-------------------------------------------------------------------------|


Eb--------20b----------------20b--20--17-20---------------------|
Bb------------------------------------------20-20b--20b~--------|
Gb--------------------------------------------------------------|
Db--------------------------------------------------------------|
Ab--------------------------------------------------------------|
Db--------------------------------------------------------------|


Eb-------------------------------------------------------------------------|
Bb------20b----20b----20b----20b----20b-------20b----20b----20b~-----------|
Gb-------------------------------------------------------------------------|
Db-------------------------------------------------------------------------|
Ab-------------------------------------------------------------------------|
Db-------------------------------------------------------------------------|

Outro:
Eb-----------------------------------|
Bb-----------------------------------|
Gb-----------------------------------|
Db---9p7----------------------7-7~---|
Ab-------9p7---7p4--4h5~------7-7~---|
Db----------------------------7-7~---|

An that would be all....Pretty sick song!

| /  slide up
| \  slide down
| h  hammer-on
| p  pull-off
| ~  vibrato
| +  harmonic
| x  Mute note

===========================================================================
Related for Rollin On tab