Guitaretab - guitar tabs
Song name
# A B C D E F G H I J K L M N O P Q R S T U V W X Y Z

Fireflight - You Gave Me A Promise tab

Fireflight
You gave me a promise
Tabbed by StuDog
Db-Ab-Db-Gb-Bb-Eb
Intro
Guitar 1
|-------------------------------------------------------------------------------------|
|-------------------------------------------------------------------------------------|
|-------------------------------------------------------------------------------------|
|-------------------------------------------------------------------------------------|
|--2-2-2-2-2-2-2-2-4-4-4-4-5-5-5-5-4-4-4-4-4-4-4-4-5-5-5-5-7-7-7-7--------------------|
|-------------------------------------------------------------------------------------|
|Guitar 1
|----------------------------------------------------------------------------------|
|----------------------------------------------------------------------------------|
|----------------------------------------------------------------------------------|
|--2-2-2-2---4---2-2-2-2---4----2-2---4----5-5-5-5---7----5-5-5-5----7---5-5----7--|
|--2-2-2-2--------2-2-2-2--------2-2---------5-5-5-5--------5-5-5-5--------5-5-----|
|--2-2-2-2--------2-2-2-2--------2-2---------5-5-5-5--------5-5-5-5--------5-5-----|

Guitar 1
|-------------------------------------------------------------------------------------|
|-------------------------------------------------------------------------------------|
|-------------------------------------------------------------------------------------|
|-------------------------------------------------------------------------------------|
|--2-2-2-2-2-2-2-2-4-4-4-4-5-5-5-5-4-4-4-4-4-4-4-4-5-5-5-5-7-7-7-7--------------------|
|-------------------------------------------------------------------------------------|
|guitar 2
|-----------------------|
|-----------------------|
|-----------------------|
|--9--------7-----------|
|--9-x167-x16----------|
|--9--------7-----------|

Both
|----------------------------------------------------------------------------------|
|----------------------------------------------------------------------------------|
|----------------------------------------------------------------------------------|
|--2-2-2-2---4---2-2-2-2---4----2-2---4----5-5-5-5---7----5-5-5-5----7---5-5----7--|
|--2-2-2-2--------2-2-2-2--------2-2---------5-5-5-5--------5-5-5-5--------5-5-----|
|--2-2-2-2--------2-2-2-2--------2-2---------5-5-5-5--------5-5-5-5--------5-5-----|

Verse
Guitar 1
|--------------------------------------------------------------------------------|
|--------------------------------------------------------------------------------|
|--------------------------------------------------------------------------------|
|--9-9---9---12-11-9---9-9---9----12-11-9----5-5---5---7-5-0---5-5---5----7-5-0--|
|--9-9---9----------------9-9---9-----------------5-5---5-------------5-5---5----|
|--9-9---9----------------9-9---9-----------------5-5---5-------------5-5---5----|
[ Tab from: http://www.guitaretab.com/f/fireflight/112099.html ]
|guitar 2
|-------------2-------------------------------------------------0--|
|--------3------------------------------------------------0--------|
|--4-----------------------------------------------0---------------|
|------------------------------------------------------------------|
|------------------------------------------------------------------|
|------------------------------------------------------------------|

Guitar 1
|----------------------------------------------------------------------------------|
|----------------------------------------------------------------------------------|
|----------------------------------------------------------------------------------|
|--9-9---9---12-11-9---9-9---9----12-11-9----2-2-2-2-2-2-2-2-5-5-5-5-5-5-5-5-------|
|--9-9---9----------------9-9---9-----------------2-2-2-2-2-2-2-2-5-5-5-5-5-5-5-5--|
|--9-9---9----------------9-9---9-----------------2-2-2-2-2-2-2-2-5-5-5-5-5-5-5-5--|
Guitar 2
|-------------2-------------------------------------------------------------------------|
|--------3------------------------------------------------------------------------------|
|--4------------------------------------------------------------------------------------|
|----------------------------------------------------2-2-2-2-2-2-2-2-5-5-5-5-5-5-5-5----|
|----------------------------------------------------2-2-2-2-2-2-2-2-5-5-5-5-5-5-5-5----|
|----------------------------------------------------2-2-2-2-2-2-2-2-5-5-5-5-5-5-5-5-\--|


Chorus
Guitar 1
|------------------------------------------------------------------------------------|
|------------------------------------------------------------------------------------|
|------------------------------------------------------------------------------------|
|--0-----7--5-------9-------7-------12-12-11-11--0-----7--5-------2-------5-------7--|
|--0-x6-7--5--x8--9--x8--7--x4--12-12-11-11--0-x6-7--5--x8--2--x8--5--x4--7--x4------|
|--0-----7--5-------9-------7-------12-12-11-11--0-----7--5-------2-------5-------7--|
|guitar 2
|---------------|
|-----7h8h7-----|
|---7-----------|
|---------------|
|---------------|
|---------------|
Bridge
Both guitars
|----------------------------------------------------|
|----------------------------------------------------|
|----------------------------------------------------|
|--0--------7------2--------5------0------7----------|
|--0-x-12-7-x-82-x-8-5-x8--0-x12-7-x8---------------|
|--0--------7------2--------5------0------7----------|
Both guitars
|----------------------------------------------------------------------------------|
|----------------------------------------------------------------------------------|
|----------------------------------------------------------------------------------|
|--2-2-2-2---4---2-2-2-2---4----2-2---4----5-5-5-5---7----5-5-5-5----7---5-5----7--|
|--2-2-2-2--------2-2-2-2--------2-2---------5-5-5-5--------5-5-5-5--------5-5-----|
|--2-2-2-2--------2-2-2-2--------2-2---------5-5-5-5--------5-5-5-5--------5-5-----|


Intro
Verse
Chorus
2nd line of Intro
Verse
Chorus
2nd line of Intro
Bridge
Chorus 2x
2nd line of Intro
Related for You Gave Me A Promise tab