Guitaretab - guitar tabs
Song name
# A B C D E F G H I J K L M N O P Q R S T U V W X Y Z

Fireflight - The Hunger tab

----------------------------------------------------------------------------
			     The hunger - Fireflight
----------------------------------------------------------------------------
Tabbed by: Gio Michael Bautista
Email: giobautista02@yahoo.com

Tuning: Drop D
[ Tab from: http://www.guitaretab.com/f/fireflight/174465.html ]
Intro:
Repeat this 2 times
e|-------------------------------------------------------------------------|
B|-------------------------------------------------------------------------|
G|-------------------------------------------------------------------------|
D|-2-2-0-2--0-0-0--2-2-0-2-5-----------------------------------------------|
A|-2-2-0-2--0-0-0--2-2-0-2-5-----------------------------------------------|
E|-2-2-0-2--0-0-0--2-2-0-2-5-----------------------------------------------|
Verse:
Repeat this 4 times
e|-------------------------------------------------------------------------|
B|-------------------------------------------------------------------------|
G|-------------------------------------------------------------------------|
D|-2-2-2-2-2/5-2-2---2-2-2-0-0-0-------------------------------------------|
A|-2-2-2-2-2/5-2-2---2-2-2-0-0-0-------------------------------------------|
E|-2-2-2-2-2/5-2-2---2-2-2-0-0-0-------------------------------------------|
Refrain:
Repeat this 3 times
e|-------------------------------------------------------------------------|
B|-------------------------------------------------------------------------|
G|-------------------------------------------------------------------------|
D|-2-0-2--0-0-0--2-0-2-5---------------------------------------------------|
A|-2-0-2--0-0-0--2-0-2-5---------------------------------------------------|
E|-2-0-2--0-0-0--2-0-2-5---------------------------------------------------|
     .    . . .    .
Then before the chorus:
Repeat this several times just listen to the song
e|-------------------------------------------------------------------------|
B|-------------------------------------------------------------------------|
G|-------------------------------------------------------------------------|
D|-5-----------------------------------------------------------------------|
A|-5-----------------------------------------------------------------------|
E|-5-----------------------------------------------------------------------|
Chorus:
I'm not sure if this is correct just tying =D
Listen to the song for the right timing
e|-------------------------------------------------------------------------|
B|-------------------------------------------------------------------------|
G|-9-9---------------------------------------------------------------------|
D|-9-9-7-7-7-7-5-5-5-5-5-5-5-----------------------------------------------|
A|-7-7-7-7-7-7-5-5-5-5-5-5-5-----------------------------------------------|
E|-----7-7-7-7-5-5-5-5-5-5-5-----------------------------------------------|

Just listen to the song for the right timing of the chord changing in the 
chorus part.The chords in the chorus part is not accurate so pls comment 
and correct it.. ty. 
Related for The Hunger tab