Song name
# A B C D E F G H I J K L M N O P Q R S T U V W X Y Z

Fireflight - Unbreakable tab

Unbreakable By Fireflight

Guitar 1(C#-G#-C#-F#-A#-D#)

INTRO
d#||7-0-5-0-3-5-0-5-7-0-7-10-----0|
A#||-------------------------8-7--|
F#||------------------------------|(6x)
C#||------------------------------|
G#||------------------------------|
C#||------------------------------|

"Where are the people that accused me,     The ones who
    d#||------------------------------------------------|
    A#||-------------------8-8-7-7-0-----8-7-0----------|
    F#||------------------------------------------------|
    C#||------------------------------------------------|
    G#||------------------------------------------------|
    C#||------------------------------------------------|

   beat me down and bruised me

d#||------------------------------|
A#||--8--7--7/10\8-8--------------|
F#||------------------------------|
C#||------------------------------|
G#||------------------------------|
C#||------------------------------|


"They hide just out of sight".....(and so on)

d#||--------------------------------|
A#||---8-7-8-7-8-7-8-7-8-7----------|<<<<
Tap to rate this tab
 
# A B C D E F G H I J K L M N O P Q R S T U V W X Y Z