Song name
# A B C D E F G H I J K L M N O P Q R S T U V W X Y Z

Fireflight - Forever tab

Song: Forever
Band: Fireflight
Album: Unbreakable
Tabbed by: Cody 
Email: cjmeserole@yahoo.com

Tuning: drop C# (Db, if you prefer) C#G#C#F#A#D# (Db Ab Db Gb Bb eb)


Intro and Verse:
(clean)
e|------------------------------|
B|------------------------------|
G|------------------3h4~~-------|
D|------6-h8~~------------------| X a lot lol
A|----6-----------4-------------|
E|--6-----------4---------------|

"been stuck for way too long..."
e|------------------------------------------------------|-(dist.)-|
B|------------------------------------------------------|---------|
G|------------------------------------------------------|---------|
D|--2-2-2-2-2-2-2-2--4-4-4-4-4-4-4-4--2-2-2-2-2-2-2-2---|--4~-----|
A|--2-2-2-2-2-2-2-2--4-4-4-4-4-4-4-4--2-2-2-2-2-2-2-2---|--4~-----|
E|--2-2-2-2-2-2-2-2--4-4-4-4-4-4-4-4--2-2-2-2-2-2-2-2---|--4~-----|


Chorus:

"Oh, tell me You're here..."
e|----------------------------------------------|----------------------|
B|----------------------------------------------|----------------------|
G|----------------------------------------------|----------------------|
D|--6-----2-----4-----9-9-9-9-8-8-8-8------(x2)-|-2-2-2-2-2-2-2-2--4~--|
A|--6-x8--2-x8--4-x8--9-9-9-9-8-8-8-8-----------|-2-2-2-2-2-2-2-2--4~--|
E|--6-----2-----4-----9-9-9-9-8-8-8-8-----------|-2-2-2-2-2-2-2-2--4~--|

Chorus Lead:
(I'm not 100% about this, cause it's REALLY hard to hear, but it's something like this)
e|-------------------------------------|
B|--/12-11-9-7~~-7h9-/12-11-9-7~~------|
G|-------------------------------------|
D|-------------------------------------|
A|-------------------------------------|
E|-------------------------------------|

Verse 2 is the same as Verse 1, except the second part ("been fighting way too long...") 
is distorted and palm muted instead of clean strumming 
 
the lead plays this part different too:

"I need to catch myself..."
(elevens, not 1's)
e|-----------------------------------------------------------------------|
B|--12121212121212121212121212121212-111111111111111111111111111111111---|
G|-----------------------------------------------------------------------| X2
D|-----------------------------------------------------------------------|
A|-----------------------------------------------------------------------|
E|-----------------------------------------------------------------------|



Repeat Chorus

Bridge:
I have no idea what the lead part is here, cause again, it's flippin QUIET!
e|---------------------------------------------------------------------------|
B|---------------------------------------------------------------------------|
G|---------------------------------------------------------------------------|
D|-1-----2-----9-----8-----1-----2-----4-----8----8-8-9-9~-------------------|
A|-1-x8--2-x8--9-x8--8-x8--1-x8--2-x8--4-x8--8-x8-8-8-9-9~-------------------|
E|-1-----2-----9-----8-----1-----2-----4-----8----8-8-9-9~-------------------|


Final Chorus:

e|---(clean)-------------|-(dist.)-------------|
B|-----------------------|---------------------|
G|-----------------------|---------------------|
D|-----6~-----2~-----4~--|--9-9-9-9-8-8-8-8----|
A|---6~-----2~-----4~----|--9-9-9-9-8-8-8-8----|
E|-6~-----2~-----4~------|--9-9-9-9-8-8-8-8----|

"Oh, take hold of my heart..."
e|----------------------------------------------|----------------------|
B|----------------------------------------------|----------------------|
G|----------------------------------------------|----------------------|
D|--6-----2-----4-----9-9-9-9-8-8-8-8------(x3)-|-2-2-2-2-2-2-2-2--4~--|
A|--6-x8--2-x8--4-x8--9-9-9-9-8-8-8-8-----------|-2-2-2-2-2-2-2-2--4~--|
E|--6-----2-----4-----9-9-9-9-8-8-8-8-----------|-2-2-2-2-2-2-2-2--4~--|

Chorus Lead:
(again, not sure)
e|-------------------------------------|
B|--/12-11-9-7~~-7h9-/12-11-9-7~~------|
G|-------------------------------------|
D|-------------------------------------|
A|-------------------------------------|
E|-------------------------------------|

The end!  It's a really simple song, and really beautiful as well =)  enjoy and God bless!
| /  slide up
| \  slide down
| h  hammer-on
| p  pull-off
| ~  vibrato
| +  harmonic
| x  Mute note
===============================================================================
Tap to rate this tab
 
# A B C D E F G H I J K L M N O P Q R S T U V W X Y Z