Song name
# A B C D E F G H I J K L M N O P Q R S T U V W X Y Z

Fireflight - You Gave Me A Promise tab

INTRO
D#|--------------------------------------------------------------------------|
A#|--------------------------------------------------------------------------|
F#|-44444444-6666-7777-66666666-7777-9999------------------------------------|
C#|-44444444-6666-7777-66666666-7777-9999--2222-4-2222-4-22-4--5555-7-5555-7-|
G#|-22222222-4444-5555-44444444-5555-7777--2222---2222---22----5555---5555---|
C#|----------------------------------------2222---2222---22----5555---5555---|

D#|----------|
A#|----------|
F#|----------|
C#|-55-7-----|
G#|-55-------|
C#|-55-------|

Verse(palm muted)
D#|-------------------------------------------------------------------------|
A#|-------------------------------------------------------------------------|
F#|-------------------------------------------------------------------------|
C#|-999-12/11/9-999-12/11/9--555-7/5--555-7/5---999-12/11/9-999-12/11/9-----|
A#|-999---------999----------555----5-555----5--999---------999-------------|
C#|-999---------999----------555------555-------999---------999-------------|

D#|--------------------|
A#|--------------------|
F#|--------------------|
C#|-22222222/55555555--|
A#|-22222222/55555555--|
C#|-22222222/55555555--|

D#|-------------------------------------------------------------------------|
A#|-------------------------------------------------------------------------|
F#|-------------------------------------------------------------------------|
C#|-999-12/11/9-999-12/11/9--555-7/5--555-7/5---999-12/11/9-999-12/11/9-----|
A#|-999---------999----------555----5-555----5--999---------999-------------|
C#|-999---------999----------555------555-------999---------999-------------|

D#|-------------------------|
A#|-------------------------|
F#|-------------------------|
C#|-22222222/55555555/XXXX--|
A#|-22222222/55555555/XXXX--|
C#|-22222222/55555555/XXXX--|

Chorus
D#---------------------------------------------|
A#---------------------------------------------|
F#-77777777------------------------------------|
C#-77777777-55555555-22222222-5555-12/12/11/11-|
A#-55555555-55555555-22222222-5555-12/12/11/11-|
C#----------55555555-22222222-5555-12/12/11/11-|X2

Post-Chorus [Same as intro (done once)]
Verse
Chorus
Post-Chorus
Bridge
D#|-------------------------------------------|
A#|-------------------------------------------|
F#|----------------99999999-------------------|
C#|-00-000-000-000-99999999-22222222-55555555-|
A#|-00-000-000-000-77777777-22222222-55555555-|
C#|-00-000-000-000----------22222222-55555555-|x2 Second time play intro once

Chorus X4
Outro (Same as Post-Chorus)
Tap to rate this tab
 
# A B C D E F G H I J K L M N O P Q R S T U V W X Y Z