Song name
# A B C D E F G H I J K L M N O P Q R S T U V W X Y Z

Fireflight - The Hunger tab

-------------------------------------------------------------------------------
			                           The Hunger- Fireflight
-------------------------------------------------------------------------------
Tabbed by:Fireflightfan22


Tuning: Drop C: Low to High(CGCFAD)
Intro:
D|---------------------------------------------------------------------------|
A|---------------------------------------------------------------------------|
F|---------------------------------------------------------------------------|
C|----2202-0202202-555--2202-0202202-777-------------------------------------|
G|----2202-0202202-555--2202-0202202-777-------------------------------------|
C|----2202-0202202-555--2202-0202202-777-------------------------------------|
Verse 1:
D|-------------------------------------------|-----------------------------------------|
A|-------------------------------------------|-----------------------------------------|
F|-------------------------------------------|-----------------------------------------|
C|-------------------------------------------|----2xx2xxxx2xx2555--2xx2xxxx2xx2555-----|
G|-------------------------------------------|----2xx2xxxx2xx2555--2xx2xxxx2xx2555-----|
C|---22225222-22220000------22227222-22220000|x2--2xx2xxxx2xx2555--2xx2xxxx2xx2555-----|

D|-----------------|
A|-----------------|
F|-----------------|
C|0000000000000000-|
G|0000000000000000-|
C|0000000000000000-|
Chorus:
D|---------------------------------------------------------------------------|
A|---------------------------------------------------------------------------|
F|--3333--------555/77~-3333--------555/77~-33333333-------------------------|
C|--3333--0000--555/77~-3333--0000--555/77~-33333333-33335555----------------|
G|--1111--0000--333/55~-1111--0000--333/55~-11111111-33335555----------------|
C|--------0000----------------0000-------------------33335555----------------|

Then Intro x1
Then Verse x1
Then Chorus x1
Then Intro x1

Bridge 
    (Clean) 
D|-----------------------------|
A|-----------------------------|
F|----3-------------3------5---|
C|---3-------0-----3------5----|
G|--1-------0-----1------3-----|
C|---------0-------------------|

Then Chorus (Distorted)
Then Intro x1 

Outro
D|----------------------------------|
A|----------------------------------|
F|----------------------------------|
C|----------------------------------|
G|----------------------------------|
C|--2202-0202202-555--2202-0202202\-|
Tap to rate this tab
# A B C D E F G H I J K L M N O P Q R S T U V W X Y Z