Song name
# A B C D E F G H I J K L M N O P Q R S T U V W X Y Z

Fireflight - Unbreakable tab

----------------------------------------------------------------------------
			 Unbreakable - Fireflight
----------------------------------------------------------------------------

Tabbed by: Michael Cage
Email: mymusicmania@hotmail.com

Tuning: Drop Db

Intro: Guitar 2     ( Repeat x6 )
e|--7p0-5p0-3h5p0-5h7p0-7h10p0----------------------------------------------|
B|------------------------------8p7p0---------------------------------------|
G|--------------------------------------------------------------------------|
D|--------------------------------------------------------------------------|
A|--------------------------------------------------------------------------|
E|--------------------------------------------------------------------------|

Intro: Guitar 1
   nn nv nn nv nn  nnnn ( 1st Ending )   ( 2nd Ending )
e|--------------------------------------------------------------------------|
B|--------------------------------------------------------------------------|
G|------------------------------------------2222----------------------------|
D|-22----22----22/-5555/-12121212-----------2222--2-------------------------|
A|-22-XX-22-XX-22/-5555/-12121212-----------0000--2-------------------------|
E|-22----22----22/-5555/-12121212-----------------2-------------------------|

Verse 1: Guitar 1
e|---3-2--------3-2----(3)-----3-2--------3-2-5----3-----------+7+----------|
B|-------------------------------------------------3------------------------|
G|-------0----------5---0----------0---------------0------------------------|
D|-2---------0----------2---2----------0-----------2-----2-0-2--------------|
A|----------------------3--------------------------3-----2-0-2--------------|
E|-2---------0--------------2----------0-----------------2-0-2--------------|

Verse 1: Guitar 2
e|---------------------------------------------------------------------------|
B|-------------8--8--8--8--...-----------------------------------------------|
G|--------------11-11-11-11...-----------------------------------------------|
D|---------------------------------------------------------------------------|
A|---------------------------------------------------------------------------|
E|---------------------------------------------------------------------------|

Chorus: Guitar 1                   Ending 1
e|-0...-0...------------------------0...-0...-------------------------------|
B|-x...-x...------------------------x...-x...-------------------------------|
G|-5...-7...------------------------5...-7...-------------------------------|
D|-5...-7...--22----22----2---------5...-7...-5-4---22----22----2-----------|
A|-3...-5...--22-XX-22-XX-2--( X2 )-3...-5...-5-4---22-XX-22-XX-2-( X2 )----|
E|------------22----22----2-------------------5-4---22----22----2-----------|

Chorus: Guitar 1 ( Con.) Ending 2
e|-0...---------------------------------------------------------------------|
B|-x...---------------------------------------------------------------------|
G|-5...---------------------------------------------------------------------|
D|-5...--5...-----0-2-------------------------------------------------------|
A|-3...--5...--5~-0-2-------------------------------------------------------|
E|-------5...-----0-2-------------------------------------------------------|

Chorus: Guitar 2                                Ending 1
e|-----------------------------------------------0000--0000--0000-----------|
B|-----------------------------------------------7855--7855--7855-----------|
G|-11/-12-9-9--------\12-11-/12-12-12-11-12-----------------------/12-11----|
D|------------( x3 )--------------------------------------------------------|
A|--9/-10-7-7--------\10--9-/10-10-10--9-10-----------------------/10--9----|
E|--------------------------------------------------------------------------|

Chorus: Guitar 2    Ending 2
e|--------------------0000--0000--0000--------------------------------------|
B|--------------------5555--5555--3333--------------------------------------|
G|--------------------------------------------------------------------------|
D|--------------------------------------------------------------------------|
A|--------------------------------------5~----------------------------------|
E|--------------------------------------- 0---------------------------------|

Verse 2 Variation
e|--------------------------------------------------------------------------|
B|--------------------------------------------------------------------------|
G|--------------------------------------------------------------------------|
D|-2...-0...-2...-0--5------------------------------------------------------|
A|-2...-0...-2...-0--5------------------------------------------------------|
E|-2...-0...-2...-0--5------------------------------------------------------|

Bridge:
e|---------------------------------------------------------------------------|
B|---------------------------------------------------------------------------|
G|-------0-------------------------------------------------------------------|
D|-2--4--2--2---2-------------------------------------------x-xx-x-----------|
A|-2--5--3--2---2--3-3p2-0--3-3p2-0--3-3p2-0-2~-0----( X2 )-2-22-2-----------|
E|-2--7-----2---2-2--------2--------2------------5-0--------2-22-2-----------|
                                                            x xx x
      Ending
e|--------------------------------------------------------------------------|
B|--------------------------------------------------------------------------|
G|--------------------------------------------------------------------------|
D|----------2---------------------------------------------------------------|
A|-----5-00-2---------------------------------------------------------------|
E|-----5-00-2---------------------------------------------------------------|

************************************

| /   slide up
| \   slide down
| h   hammer-on
| p   pull-off
| ~   vibrato
| +   harmonic
| x   Mute note
| n: Down Stroke
| v: Up Stroke
************************************
Tap to rate this tab
# A B C D E F G H I J K L M N O P Q R S T U V W X Y Z