Song name
# A B C D E F G H I J K L M N O P Q R S T U V W X Y Z

Fireflight - Recovery Begins tab

Band: Fireflight
Song: Recovery Begins
Album: For Those Who Wait
Tabbed By: Matt Florio; myspace.com/mattflorio2
email: Shempashland@yahoo.com

Hey folks, my friend Alex really likes Firflight so he asked me to tab out this song... 
did and please enjoy. Any questions or comments.... just ask!

Standard Tuning


Piano Riff
e|---------------------------------------|
b|---------------------------------------|
g|-----------8---4------------8---4---3--|
d|-------6-----------------6-------------|
a|---------------------------------------|
e|---4-------------2----4-----------2----|


the other piano riff at (0:39)
i play this down near the 12 frets but this is an easier way to play it
e|--------7-----9-----9h11-14h16------7-----9-----11----------|
b|---9-7h9---7h9--7h9------------9-7h9---7h9--7h9----14p12-11-|
g|------------------------------------------------------------|
d|------------------------------------------------------------|
a|------------------------------------------------------------|
e|------------------------------------------------------------|

Verse
e|---4------2----------------|
b|---4------2----------------|
g|---4------3----------------|
d|---6------4----------------|
a|---6------4----------------|
e|---4------2----------------|
 I search...


Chorus
(strum each chord once while singing this line if youre just learning this)
 *should be as easy as counting 1 - 2 - 3 - 4 - 5-|
e|---4-----2-------2-----0---2--------------------|
b|---4-----2-------2-----0---2--------------------|
g|---4-----3-------4-----1---3--------------------|
d|---6-----4-------4-----2---4--------------------|
a|---6-----4-------2-----2---4--------------------|
e|---4-----2-------------0---2--------------------|
    it all comes down to this

Bridge
e|---0---4---0---2--------------|
b|---0---4---0---2--------------|
g|---1---4---4---3--------------|
d|---2---6---4---4--------------|
a|---2---6---2---4--------------|
e|---0---4-------2--------------|
Whisper to me
Tap to rate this tab
# A B C D E F G H I J K L M N O P Q R S T U V W X Y Z