Song name
# A B C D E F G H I J K L M N O P Q R S T U V W X Y Z

Fireflight - Forever tab

Song: Forever 
Artist: Fireflight
Album: Unbreakable
Tunning: Drop D (DADGBE)

Intro |0:00|
||-------------------||
||-------------------||
||---------------3h4-||
||------5h7----3-----||	x6
||----5--------------||
||--5--------3-------||

Pre Chorus |0:34| 
||-------------------------------------------||
||-------------------------------------------||
||-------------------------------------------||
||-(1)1111111--33333333--(1)1111111--3~------||
||-(1)1111111--33333333--(1)1111111--3~------||
||-(1)1111111--33333333--(1)1111111--3~------||

Chorus: Lead Guitar |0:46|
||-6-5-3-3-----6-5-3-3-h1--6-5-1-1||
||---------h3---------------------||
||--------------------------------||x2
||--------------------------------||
||--------------------------------||
||--------------------------------||

Chorus: Rythm Gutiar |0:46|
||---------------------------------------------||
||---------------------------------------------||
||---------------------------------------------||
||-55555555-11111111-33333333-8888-7777--------|| x2
||-55555555-11111111-33333333-8888-7777--------||
||-55555555-11111111-33333333-8888-7777--------||

|1:10|
||-----------------------||
||-----------------------||
||-----------------------||
||-11111111--3~----------||
||-11111111--3~----------||
||-11111111--3~----------||

Verse |1:16|
||-------------------||
||-------------------||
||---------------3h4-||
||------5h7----3-----||	x4
||----5--------------||
||--5--------3-------||

Pre Chorus |1:39|
||-------------------------------------------||
||-------------------------------------------||
||-------------------------------------------||
||-(1)1111111--33333333--(1)1111111--3~------||
||-(1)1111111--33333333--(1)1111111--3~------||
||-(1)1111111--33333333--(1)1111111--3~------||

Chours: Lead Guitar |1:51|
||-6-5-3-3-----6-5-3-3-h1--6-5-1-1||
||---------h3---------------------||
||--------------------------------||x2
||--------------------------------||
||--------------------------------||
||--------------------------------||

Chorus: Rythm Gutiar |1:51|
||---------------------------------------------||
||---------------------------------------------||
||---------------------------------------------||
||-55555555-11111111-33333333-8888-7777--------|| x2
||-55555555-11111111-33333333-8888-7777--------||
||-55555555-11111111-33333333-8888-7777--------||

Bridge |2:14|
||---------------------------------------------------------------------------------||
||---------------------------------------------------------------------------------||
||---------------------------------------------------------------------------------||
||-00000000--11111111--77777777--33333333--00000000--11111111--33333333--55555555--||
||-00000000--11111111--77777777--33333333--00000000--11111111--33333333--55555555--||
||-00000000--11111111--77777777--33333333--00000000--11111111--33333333--55555555--||

           |2:46|
||----------------------||
||----------------------||
||----------------------||
||-Vocals---8888--7777--||
||----------8888--7777--||
||----------8888--7777--||

Chorus: Lead Guitar |249|
||-6-5-3-3-----6-5-3-3-h1--6-5-1-1||
||---------h3---------------------||
||--------------------------------||x3
||--------------------------------||
||--------------------------------||
||--------------------------------||

Chorus: Rythm Gutiar |2:49|
||---------------------------------------------||
||---------------------------------------------||
||---------------------------------------------||
||-55555555-11111111-33333333-8888-7777--------|| x3
||-55555555-11111111-33333333-8888-7777--------||
||-55555555-11111111-33333333-8888-7777--------||

||-----------------------||
||-----------------------||
||-----------------------||
||-11111111--3~----------||
||-11111111--3~----------||
||-11111111--3~----------||
Tap to rate this tab
 
# A B C D E F G H I J K L M N O P Q R S T U V W X Y Z